Song name
# A B C D E F G H I J K L M N O P Q R S T U V W X Y Z

Randy Houser - Boots On tab

Boots On By Randy Houser:

Intro:
E--------------------------------------------------------------------------|
B--------------------------------------------------------------------------|
G--------------------------------------------------------------------------|
D--------------------------------------------------------------------------|
A-0-4-3-4/9---0-4-3-6-6-4-4-0----------------------------------------------|
E-0-2-1-2/7---0-2-1-4-4-2-2-0----------------------------------------------|

After 1st Chorus:
E--------------------------------------------------------------------------|
B--------------------------------------------------------------------------|
G--------------------------------------------------------------------------|
D--------------------------------------------------------------------------|
A-0-4-3-4/9---0-4-3-6-6-4-4-4-3-4/9-0-4-3-6-6-4-4--------------------------|
E-0-2-1-2/7---0-2-1-4-4-2-2-2-1-2/7-0-2-1-4-4-2-2--------------------------|

Outro:
Repeat 2nd Chorus Then:
E--------------------------------------------------------------------------|
B--------------------------------------------------------------------------|
G--------------------------------------------------------------------------|
D--------------------------------------------------------------------------|
A-4--6--8-10-12------------------------------------------------------------|
E-2--4--6-8--14------------------------------------------------------------|

That's It, Enjoy!!! Good or your money back(wait you didn't pay!)!!!

SINCERELY,
GUITARSLINGER
Tap to rate this tab
 
# A B C D E F G H I J K L M N O P Q R S T U V W X Y Z