Song name
# A B C D E F G H I J K L M N O P Q R S T U V W X Y Z

Randy Houser - Whistlin Dixie tab

Tabbed by: Digitaldave


Tuning:Drop Eb

Eb|--------------------------------------------|
Bb|--------------------------------------------| Part I
Gb|-------------------------4h5----77--7-------|
Db|-------------55---5h7-----------------3v~~--|
Ab|--------------------------------------------|
Db|--------------------------------------------|

Eb|--------------------------------------------|
Bb|--------------------------------------------|
Gb|-------------------------0h22---2-----------| Part II
Db|------------00----0h2h4--------------4v~~-----|
Ab|--------------------------------------------|
Db|--------------------------------------------|
                                                 Part III
Eb|------------------------------------------------------------------|
Bb|-------------------------4h5--------77---7------------------------|
Gb|------------55-----5h7------------------------3-----5---6--7------|
Db|----------------------------------------------3-----5---6--7------|
Ab|----------------------------------------------0-----3---4--5------|
Db|------------------------------------------------------------------|


************************************

| /   slide up
| \   slide down
| h   hammer-on
| p   pull-off
| v   vibrato
| +   harmonic
| x   Mute note
| b   Bend
| pb  Pre-bend
| br  Bend release
| pbr Pre-bend release
| brb Bend release bend
Tap to rate this tab
# A B C D E F G H I J K L M N O P Q R S T U V W X Y Z