Song name
# A B C D E F G H I J K L M N O P Q R S T U V W X Y Z

Randy Houser - Goodnight Kiss tab

Randy Houser- Goodnight Kiss
Tuning: Rhythm Guitar:Drop C# (C#,G#,C#,F#,A#,D#)
          Lead Guitar:Drop C# (C#,G#,C#,F#,A#,D#)

Intro- Lead Guitar
D#|-----------------------------------------------------------|
A#|-10-10-10-10-10-10-12-12-7-7-7-7-7-7-10-10-5-5-5-5-5-5-7-7-|
F#|-9--9--9--9--9--9--11-11-6-6-6-6-6-6-9--9--4-4-4-4-4-4-6-6-|
C#|-7--7--7--7--7--7--9--9--4-4-4-4-4-4-7--7--2-2-2-2-2-2-4-4-|
A#|-----------------------------------------------------------|
C#|-----------------------------------------------------------|

D#|-----------------|
A#|-3-3-3-3-3-3-3-3-|
F#|-2-2-2-2-2-2-2-2-| x2
C#|-0-0-0-0-0-0-0-0-|
G#|-----------------|
C#|-----------------|

Intro- Rhythm Guitar
D#|-----------------------------------------------------------------|
A#|-----------------------------------------------------------------|
F#|-----------------------------------------------------------------| x2
C#|-7-7-7-7-7-7-9-9-4-4-4-4-4-4-7-7-2-2-2-2-2-2-4-4-0-0-0-0-0-0-0-0-|
G#|-7-7-7-7-7-7-9-9-4-4-4-4-4-4-7-7-2-2-2-2-2-2-4-4-0-0-0-0-0-0-0-0-|
C#|-7-7-7-7-7-7-9-9-4-4-4-4-4-4-7-7-2-2-2-2-2-2-4-4-0-0-0-0-0-0-0-0-|

Lead Guitar (This part was suppose to be for the piano only, but I decide to put the 
lead in it instead. It uses only 2 strings  on that part which is the A# string).
D#|---------------------5\0~-|
A#|-----12\7~~10\5~~7\0~~~~~-|

Verse 1- Lead Guitar (This part is barely audible so I think it goes like this.)
D#|--------------------------------------2h3p2--|
A#|-10-10-10/12\7-7-7-7/10\5-5-5-5/7\3-3--------|
F#|---9--9-------6-6-6------4-4-4-----2-2-------|
C#|---------------------------------------------|
G#|---------------------------------------------|
C#|---------------------------------------------|

D#|---------------------------------------------|
A#|-10-10-10/12\7-7-7-7/10\5-5-5-5/7\3-3-3-3----|
F#|---9--9-------6-6-6------4-4-4-----2-2-2-2---|
C#|---------------------------------------------|
G#|---------------------------------------------|
C#|---------------------------------------------|

Verse 1- Rhythm Guitar (This you can do just for fun. Sounds good to me.) :D
D#|-------------------------------------|
A#|-------------------------------------|
F#|-------------------------------------|
C#|-7-7-7/9\4-4-4/7\2-2-2/4\0-0--4/5\4~-|
G#|---------------------------------\4~-|
C#|--7-7-----4-4-----2-2-----0-0-4/5\4~-|

D#|----------------------------------|
A#|----------------------------------|
F#|----------------------------------|
C#|-7-7-7/9\4-4-4/7\2-2-2/4\0-0-0-0--|
G#|----------------------------------|
C#|--7-7-----4-4-----2-2-----0-0-0-0-|

Pre-Chorus- Lead Guitar
D#|-------------------------------------|
A#|-7/8\7~~5~~5-5-5-3-3-3---7/8\7~5-3~~-|
F#|-6/7\6~~4~~4-4-4-2-2-2---6/7\6~4-2~~-|
C#|-4/7\4~~2~~2-2-2-0-0-0---4/7\4~2-0~~-|
G#|-------------------------------------|
C#|-------------------------------------|

Pre-Chorus- Rhythm Guitar
D#|-------------------------------------|
A#|-------------------------------------|
F#|-------------------------------------|
C#|-4/5\4~~2~~2-2-2-0-0-0---4/5\4~2-0~~-|
G#|-------------------------------------|
C#|-4/5\4~~2~~2-2-2-0-0-0---4/5\4~2-0~~-|

Chorus- Lead Guitar
D#|----------------------------------------------------|
A#|-3--3--3--3--5--5--5--5--7--7--7--7-3~-3-3~-7-7-8-8-|
F#|-2--2--2--2--4--4--4--4--6--6--6--6-2~-2-2~---------| x2
C#|-0--0--0--0--2--2--2--2--4--4--4--4-0~-0-0~-4-4-5-5-|
G#|----------------------------------------------------|
C#|----------------------------------------------------|

Chorus- Rhythm Guitar
D#|----------------------------------------------------|
A#|----------------------------------------------------|
F#|----------------------------------------------------| x2
C#|-0--0--0--0--2--2--2--2--4--4--4--4-2~-2-2~-4-4-5-5-|
G#|-0--0--0--0--2--2--2--2--4--4--4--4-2~-2-2~---------|
C#|-0--0--0--0--2--2--2--2--4--4--4--4-2~-2-2~-4-4-5-5-|

Lead Guitar (Just like after the Intro part where you use individual strings to do the 
piano. This time you're using 2 strings at once cause if you listen carefully to it, 
there's 2 sounds going at the same time. Like this..)
D#|---------------------|
A#|----12\7~~10\5~~7\3~~|
F#|---------------------|
C#|----9-\4~~7-\2~~4\0~~|
G#|---------------------|
C#|---------------------|

Verse 2- Lead Guitar (This part was tricky to figure out but some parts r audible.)
D#|-----------------------------3~~~~~--------------------------|
A#|-------------7------------------5-3-2p0~~~~~~----------------|
F#|------------7-9-7~~------------------------------------------|
C#|-------------------------------------------------------------|
G#|-------------------------------------------------------------|
C#|-------------------------------------------------------------|

Verse 2- Rhythm Guitar (OK this i replace the piano part and turn it to guitar.)
D#|-------------------------------------------------------------|
A#|-------------------------------------------------------------|
F#|-------------------------------------------------------------| x2
C#|-------------------------------------------------------------|
G#|-0-0-0-0-0-2---------------0---------------------------------|
C#|-------------4-4-4-4-4-4-4---2-2-2-2-2-2-2-4-0-0-0-0-0-0-0-0-|

Pre-Chorus- Lead Guitar (ALSO barely audible to hear but this is the best i can decipher.)
D#|---------------------2-----------|
A#|------8-8-7~5h7~----3-3----------|
F#|-------------------2---2---------|
C#|------------------0-----0--------|
G#|-----------------0-------0~~-----|
C#|---------------------------------|

Pre-Chorus- Rhythm Guitar
D#|---------------------------------|
A#|---------------------------------|
F#|---------------------------------|
C#|-4/5\4~~2~~2-2-2-0-0-0--4-4~/7~~-|
G#|---------------------------------|
C#|-4/5\4~~2~~2-2-2-0-0-0--4-4~/7~~-|

Chorus 2- Lead Guitar
D#|----------------------------------------------------|
A#|-3--3--3--3--5--5--5--5--7--7--7--7-3~-3-3~-7-7-8-8-|
F#|-2--2--2--2--4--4--4--4--6--6--6--6-2~-2-2~---------| x2
C#|-0--0--0--0--2--2--2--2--4--4--4--4-0~-0-0~-4-4-5-5-|
G#|----------------------------------------------------|
C#|----------------------------------------------------|

Chorus 2- Rhythm Guitar
D#|----------------------------------------------------|
A#|----------------------------------------------------|
F#|----------------------------------------------------| x2
C#|-0--0--0--0--2--2--2--2--4--4--4--4-2~-2-2~-4-4-5-5-|
G#|-0--0--0--0--2--2--2--2--4--4--4--4-2~-2-2~---------|
C#|-0--0--0--0--2--2--2--2--4--4--4--4-2~-2-2~-4-4-5-5-|

Post-Chorus- Lead Guitar
D#|----------------------------------------------------------------|
A#|-11-9-2~~-9-9-11/12-11-9-2~~7-7-7-9-9/11~9--12-12-12-12-12\11~~-|
F#|------2~~----------------2~~------------------------------------|
C#|-9--7-0~~-7-7-9-/10-9--7-0~~5-5-5-7-7/9-~7--10-10-10-10-10\9-~~-|
G#|----------------------------------------------------------------|
C#|----------------------------------------------------------------|

Post-Chorus- Rhythm Guitar
D#|-----------------------------------------------------------|
A#|-----------------------------------------------------------|
F#|-----------------------------------------------------------|
C#|-4-4-4-4-0-0-0222-4-4-4-4-0-0-02222/4-44~44-2-2-55555\4~~~-|
G#|-4-4-4-4-0-0-0222-4-4-4-4-0-0-02222/4-44~44-2-2-55555\4~~~-|
C#|-4-4-4-4-0-0-0222-4-4-4-4-0-0-02222/4-44~44-2-2-55555\4~~~-|

For the soft part right here, there's no guitar parts so we can have a little resting 
time till....

Chorus 3- Lead Guitar
D#|----------------------------------------------------|
A#|-3--3--3--3--5--5--5--5--7--7--7--7-3~-3-3~-7-7-8-8-|
F#|-2--2--2--2--4--4--4--4--6--6--6--6-2~-2-2~---------| x2
C#|-0--0--0--0--2--2--2--2--4--4--4--4-0~-0-0~-4-4-5-5-|
G#|----------------------------------------------------|
C#|----------------------------------------------------|

Chorus 3- Rhythm Guitar
D#|----------------------------------------------------|
A#|----------------------------------------------------|
F#|----------------------------------------------------| x2
C#|-0--0--0--0--2--2--2--2--4--4--4--4-2~-2-2~-4-4-5-5-|
G#|-0--0--0--0--2--2--2--2--4--4--4--4-2~-2-2~---------|
C#|-0--0--0--0--2--2--2--2--4--4--4--4-2~-2-2~-4-4-5-5-|

Post-Chorus 2- Lead Guitar (Its just like the 1st Post Chorus but more impact. On the 
last note STRUM IT LIKE THERE'S NO TOMORROW XD)
D#|-----------------------------------------------------------------|
A#|-11-9-2~~-9-9-11/12-11-9-2~~-12-11-9-9-9/11~~-12-12-12-12-12\11~~|
F#|------2~~----------------2~~-12-11-9-9-9/11~~-12-12-12-12-12\11~~|
C#|-9--7-0~~-7-7-9-/10-9--7-0~~-10-9--7-7-7/9-~~-10-10-10-10-10\9-~~|
G#|-----------------------------------------------------------------|
C#|-----------------------------------------------------------------|

Post-Chorus 2- Rhythm Guitar (Like I said on the Post-Chorus Lead Guitar, STRUM IT LIKE 
THERE'S NO TOMORROW!!!!!!!)
D#|------------------------------------------------------------|
A#|------------------------------------------------------------|
F#|------------------------------------------------------------|
C#|-4-4-4-4-0-0-0222-4-4-4-4-0-0-54444/5~-55~55-2-2-55555\4~~~-|
G#|-4-4-4-4-0-0-0222-4-4-4-4-0-0-54444/5~-55~55-2-2-55555\4~~~-|
C#|-4-4-4-4-0-0-0222-4-4-4-4-0-0-54444/5~-55~55-2-2-55555\4~~~-|

Outro- Lead Guitar (My favourite part of the song)
D#|----------------------------------0----|
A#|-10--10--12--7--7--10-5--5--7-3----3---|
F#|---9---9---11-6--6---9-4--4--6-2-2--2--|
C#|----7---7------4--4-----2--2----0----0-|
G#|---------------------------------------|
C#|---------------------------------------|

D#|------------------------------------|
A#|-10--10--12--7--7--10-5--5--7--3~~~-|
F#|---9---9---11-6--6---9-4--4--6-2~~~-|
C#|----7---7------4--4-----2--2---0~~~-|
G#|--------------------------------~~~-|
C#|------------------------------------|

Outro- Rhythm Guitar
D#|-----------------------------------------------------------------|
A#|-----------------------------------------------------------------|
F#|-----------------------------------------------------------------|
C#|-7-7-7-7-7-7-9-9-4-4-4-4-4-4-7-7-2-2-2-2-2-2-4-4-0-0-0-0---------|
G#|-7-7-7-7-7-7-9-9-4-4-4-4-4-4-7-7-2-2-2-2-2-2-4-4-0-0-0-0---------|
C#|-7-7-7-7-7-7-9-9-4-4-4-4-4-4-7-7-2-2-2-2-2-2-4-4-0-0-0-0-5-4-2-0-|

D#|------------------------------------------------------|
A#|------------------------------------------------------|
F#|------------------------------------------------------|
C#|-7-7-7-7-7-7-9-9-4-4-4-4-4-4-7-7-2-2-2-2-2-2-4-4-0~~~-|
G#|-7-7-7-7-7-7-9-9-4-4-4-4-4-4-7-7-2-2-2-2-2-2-4-4-0~~~-|
C#|-7-7-7-7-7-7-9-9-4-4-4-4-4-4-7-7-2-2-2-2-2-2-4-4-0~~~-|

Well that's it for the lead and rhythm guitar parts. Hope you like it. This whole tabs 
were made by me Most if it i thought up and thought that "Hey.. That fits the song even 
if you don't hear it sounding like the actual song."
What do you all think of it? Was it good..pretty accurate...or some parts doesn't sound 
right? Just comment below and I'll see what I can do to fix it.
Tap to rate this tab
# A B C D E F G H I J K L M N O P Q R S T U V W X Y Z