Song name
# A B C D E F G H I J K L M N O P Q R S T U V W X Y Z

Randy Newman - Its Money That Matters tab

I noticed that no one had tabbed out the guitar riff that Mark Knopfler plays throughout
song, and I really wanted to learn it so I figured it out. I tabbed out only the intro,
it's pretty much the same throughout the song. I thought it was amazing that even though 
only uses four different notes, it still sounds awesome. Hopefully it will format properly.

Some notes are stacatto, as shown by the dot above them. The asterisks are muted notes
I mute with my left hand... I'm not sure how Mark does it. The slash is a slide (I think)
you can also just hammer on instead.


   1   2   3   4   5   6   7   8   1   2   3   4   5   6   7   8
                 .                       .       .               .
E| ----------------------------------------------------------------|
B| ----------------------------------------------------------------|
G| 7-----7/9-----9-*-7---7-7---9-7-------7-*-*-9-9-*-*-7-7-7-----7-|
D| --7-9---------------------------9-7-9---------------------------|
A| ----------------------------------------------------------------|
E| ----------------------------------------------------------------|


   1   2   3   4   5   6   7   8   1   2   3   4   5   6   7   8
         .       .                       .       .
E| ----------------------------------------------------------------|
B| ----------------------------------------------------------------|
G| 7-----7-*-*-9-9-*-*-7-7-7---9-7-------7-*-*-9-9-*-*-7-7-7-------|
D| --7-9---------------------------9-7-9---------------------------|
A| ----------------------------------------------------------------|
E| ----------------------------------------------------------------|


If you have any questions or you just want to say something nice (or mean), you can
me at jake.hawkes@gmail.com
Tap to rate this tab
# A B C D E F G H I J K L M N O P Q R S T U V W X Y Z