Randy Newman - Youve Got A Friend In Me chords

Highlighted       Show chord diagrams
---------------------------------------------------------------------------
		You've Got a Friend in Me - Randy Newman
---------------------------------------------------------------------------
Tabbed by: maguri
Tuning: Standard

Randy Newman
You've Got a Friend in Me (1995)
(Newman)

From: "Toy Story"


---------------------------------------------------------------------------
SPECIAL CHORDS and VOICINGS

            e-B-G-D-A-E
E7/B        0-3-1-0-2-x
C/G         0-1-0-2-x-3
Cdim/G      x-4-x-4-x-3
*G7         x-3-0-3-x-3
G5+         x-4-4-x-5-3
C7/9        x-3-3-2-3-x
Cmaj7       0-0-0-2-3-x
C7          0-1-3-2-3-x
F#dim7      x-1-2-1-x-2
C9+/G       x-4-0-2-x-3
C/E         0-1-0-2-3-0
E/G#        0-0-1-2-x-4
D7          2-1-2-0-x-x
G7          1-0-0-0-2-3
A7          3-2-2-2-0-x
E/C# (C#m7) 0-0-1-2-4-x
Ddim7       1-0-1-0-x-x
B7/D#       2-0-2-1-x-x
Dm7         1-1-2-0-x-x
E7/G#       0-0-1-0-x-4

---------------------------------------------------------------------------

Capo 3rd fret

INTRO
  C       E7/B     Am      Ab7      C/G Cdim/G *G7   C  G5+ C7/9 G5+
e|----------------|----------------|----------------|----------------|
B|----1-3-4-5---1-|-----/4---3---1-|----------------|----------------|
G|---0------------|--2-------------|--0-------------|----------------|
D|--2-------6---2-|-----/4-------2-|------4---3-----|2---1---0---1---|
A|3---------------|----------------|------6---5-----|3---2---1---2---|
E|----------------|----------------|----------------|----------------|


---------------------------------------------------------------------------
Capo 3rd fret

INTRO
| C E7/B | Am Ab7 | C/G  Cdim/G *G7 | C G5+ | C7/9 G5+ |

C            G5+       C      C7/9  C  C7
You've got a friend in me
F              F#dim7    C/G   C9+/G  C/G
  You've got a friend in me
F          C/E        E7       Am
  When the road looks   rough ahead
           F         C/E             E7        Am
And you're miles and miles from your nice warm bed
F     F#dim7  C/G   E/G#      F7  E7  Am
  You just remember what your old pal said
      D7         G7        C    A7
For you've got a friend in me
        D7         G7        [C]    
Yeah, you've got a friend in me

INTRO
| C E7/B | Am Ab7 | C/G  Cdim/G *G7 |

C              G5+       C      C7/9  C  C7
  You've got a friend in me
F              F#dim7    C/G   C9+/G  C/G
  You've got a friend in me
F         C/E       E7         Am
  You got troubles,  I got 'em too
F             C/E        E7       Am
  There isn't anything I wouldn't do for you
F               C/E           E7     Am
  If we stick together we can see it through,
         D7         G7        C    A7
'Cause you've got a friend in me
        D7         G7        C    Cmaj7 C7 
Yeah, you've got a friend in me


F                             B
  Some other folks might be a   little bit smarter than I am
C            B7       C
  Bigger and stronger too ... maybe
B             E/C#       Ddim7 B7/D#        Em    A7
  But none of them would ever  love you the way I do
     Dm7    G7
It's me and you boy

C          G5+      C7/9   C C7
And as the years go by,
    F               F#dim7 C/G   C9+/G  C/G
Our friendship will never  die
F                 F#dim7       C/G  E7/G# Am
  You're going to see it's our de---sti---ny,
D7             G7        C    A7
  You've got a friend in me
D7             G7        C    A7
  You've got a friend in me
D7           G7        [C]
You've got a friend in me

OUTRO
| C E7/B | Am Ab7 | C/G  Cdim/G *G7 | C

Tap to rate this tab
 
# A B C D E F G H I J K L M N O P Q R S T U V W X Y Z