Song name
# A B C D E F G H I J K L M N O P Q R S T U V W X Y Z

Randy Newman - Falling In Love chords

Highlighted       Show chord diagrams
---------------------------------------------------------------------------
                Falling in Love - Randy Newman
---------------------------------------------------------------------------
Tabbed by: maguri
Tuning: Standard

Randy Newman
Falling in Love (1988)
(Randy Newman)

From: "Land of Dreams"

---------------------------------------------------------------------------
CHORDS

          e-B-G-D-A-E
G/B       3-0-0-0-2-x
D(no 3rd) x-3-2-0-x-x
D/F#      2-3-2-0-x-2
C/D       3-5-5-0-x-x

---------------------------------------------------------------------------

INTRO
  G       G/B      C       D        G       G/B      C       D
  MELODY
e|--------3---3-2-|3-------3---5-2-|3-------3---3-2-|3-------3---5-2-|
B|------3---------|------5---------|------3---------|------5---------|
G|----4-----------|----5-----------|----4-----------|----5-----------|
D|--5-------------|--5-------------|--5-------------|--5-------------|
A|----------------|----------------|----------------|----------------|
E|----------------|----------------|----------------|----------------|
  HARMONY
e|----------------|----------------|--------7---7-7-|8-------8---8-8-|
B|----------------|----------------|------8---------|------8---------|
G|----------------|----------------|----7-----------|----9-----------|
D|----------------|----------------|--9-------------|--10------------|
A|----------------|----------------|----------------|----------------|
E|----------------|----------------|----------------|----------------|

---------------------------------------------------------------------------

INTRO
| no chord | % | G G/B | C D | G G/B | C D |


G      G/B                 C        D
  Your eyelids are gettin' heavy
G    G/B       C        D
       Hard to lift
G      G/B            C       D                 [G]
  Your mind begins to wander,   things start to drift

| G G/B | C D | 

G      G/B              C        D
  Your arms are getting heavy
G    G/B       C        D
       Hard to lift
G          G/B           C              D             [G]
  You sink down a little deeper, you're feeling wonderful
G      G/B           C          [D]
           Feeling wonderful    [Maybe you're ...]

D            G          D/F#  Em    Em/D         C          G/B    A7
Maybe you're falling in love,       maybe you're falling in love
C/D          G          Em            A           D          [G]
Maybe you're  falling, falling, falling, falling, falling in love


| G G/B | C D | 


G     G/B              C        D
  You stare across the harbor
G        G/B              C        D
  At the lights along the bay
G      G/B              C          D                   [G]
  Your arms have got so heavy now, 
G         G/B                  C        D
  They're just getting in your way ...      Look!

Em                                     Em/D
  Now you're walkin' in the holy land
             C                           G/B
Yeah, that's you there, walkin' with the king
             F                         C
And you ask    "What have I done to deserve this?"
                        D
Why, you haven't done a thing

             G          D/F#  Em    Em/D         C          G/B    A7
Maybe you're falling in love,       maybe you're falling in love
C/D          G          Em            A           D          [G]
Maybe you're  falling, falling, falling, falling, falling in love

| G | C D |

             G          D/F#  Em    Em/D         C          G/B    A7
Maybe you're falling in love,       maybe you're falling in love
C/D          G          Em            A           D          Eb [break]  C
Maybe you're  falling, falling, falling, falling, falling in love

G          Em                A       D         
 Falling, falling, falling, falling ...
G          Em                A       D         
 Falling, falling, falling, falling ...
G          Em                A       D               [G]
 Falling, falling, falling, falling, falling in love

| G | C D |

OUTRO
G     G/B     C      D          [G]
                     Falling in love ...
G     G/B     C      D          [G]
                     Falling in love ...
G     G/B     C      D          [G]
                     Falling in love ...
Tap to rate this tab
# A B C D E F G H I J K L M N O P Q R S T U V W X Y Z