Song name
# A B C D E F G H I J K L M N O P Q R S T U V W X Y Z

Randy Newman - Mcqueen And Sally tab

Mcqueen and Sally - Randy Newman

Tabed by: Smiley Kiley
Tuning: Standard

This is an update on a tab I origanally posted, I made a mistake, I named it Mqueen & 
Sally not Mcqueen and Sally.

This is part of Disney/Pixar's movie Cars, it takes place when Sally and mqueen take a
drive to Tailfin pass and The Wheel Well Motel
Link to song on youtube ---> http://www.youtube.com/watch?v=N_q3GxxdVVU

e--5--4--2--0--2--0--0------------------------------------|
B---------------------------------------------------------|
G------------------------2--4--2-------2--4--6--2---------|
D----------------------------------4-----------------4--2-|
A---------------------------------------------------------|
E---------------------------------------------------------|

e--5--4--2--0--2--0----------------------------------|
B----------------------------------------------------|
G---------------------6--4--2--4--2-------2--4--6--2-|
D-------------------------------------4--------------|
A----------------------------------------------------|
E----------------------------------------------------|

e------------------------------------------------------|
B------------------------------------------------------|
G------------------------------------------------------|
D------------------------------------------------------|
A--5--5--4--2--0----------------2--4--5--5--4--2--0--2-|
E------------------2--4--5--5--------------------------|

e--5--4--2--0--2--0--0------------------------------|
B---------------------------------------------------|
G-------------------------2--4--2-----6--4--2--4--2-|
D----------------------------------4----------------|
A---------------------------------------------------|
E---------------------------------------------------|

End of guitar part. There is more to the song but it is mostly concert instruments.
Tap to rate this tab
 
# A B C D E F G H I J K L M N O P Q R S T U V W X Y Z