Song name
# A B C D E F G H I J K L M N O P Q R S T U V W X Y Z

Randy Newman - Last Night I Had A Dream chords

Highlighted       Show chord diagrams
--------------------------------------------------------------------------
                Last Night I Had A Dream - Randy Newman
---------------------------------------------------------------------------
Tabbed by: maguri
Tuning: Standard

Randy Newman
Last Night I Had A Dream (1972)
(Randy Newman)

From: "Sail Away"


--------------------------------------------------------------------------
LINK

e|----0-----------|----0-----------|
B|----0-----------|----0-----------|
G|----0---0-------|----0-----------|
D|0h2--------0----|0h2-------------|
A|----------------|----------------|
E|----------------|----------------|

--------------------------------------------------------------------------CHORDS

        e-B-G-D-A-E
Em/D    0-0-0-0-x-x
A7/C#   3-2-2-2-4-x
C/Bb    0-1-0-2-1-x
C/A     0-1-0-2-0-x
C/G     0-1-0-2-x-3

--------------------------------------------------------------------------


INTRO
| Em | Em/D | A7/C# | C7 |
| Em | G7 | A7 | C/Bb C/Bb C/A C/G|

Em         Em/D 
 Last night I had a dream
A7/C#           C7              Em        [LINK]
 You were in it, 'n I was in it with you
Em                 Em/D 
 And everyone that I knew 
A7/C#               C7                 Em        [LINK]
  And everyone that you know was in my dream

Em                Em/D 
  I saw a vampire   I saw a ghost
A7/C#                 C7          
  Everybody scared me    but you sacred me the most
Em 
  In the dream I had last night
B7                              | Em G7 | A7 C7/Bb |
   The dream I had last night 

   G                            B7
It started out in a barnyard at sundown
    C                         E
And everyone was laughing and you were lying on the ground
           A                               E7
You said, "Honey, can you tell me what your name is?"
 A                                E7
"Honey, can you tell me what your name is?"
         B7 
I said, "You know what my name is"

| Em | G7 | A7 | C/Bb C/Bb C/A C/G|
| Em | G7 | A7 | C/Bb C/Bb C/A C/G|

Em         Em/D 
 Last night I had a dream
A7/C#           C7              Em        [LINK]
 You were in it, 'n I was in it with you
Em                 Em/D 
 And everyone that I knew 
A7/C#               C7                 Em     [LINK]
  And everyone that you know was in my dream

Em                Em/D 
  I saw a vampire   I saw a ghost
A7/C#                 C7          
  Everybody scared me    but you sacred me the most
Em 
  In the dream I had last night
    B7
The dream I had last night 
      | Em | G7 | A7 | C/Bb C/Bb C/A C/G|

In my dream

OUTRO
| Em | G7 | A7 | C/Bb C/Bb C/A C/G|
 (repeat and fade)
Tap to rate this tab
# A B C D E F G H I J K L M N O P Q R S T U V W X Y Z