Song name
# A B C D E F G H I J K L M N O P Q R S T U V W X Y Z

Randy Rhoads - Finger Warm-up tab

----------------------------------------------------------------------------
			Finger Warm-Up - Randy Rhoads
----------------------------------------------------------------------------

Tabbed by: Brink Hyren
Email: paranoid_sabbath_fan@hotmail.com

This is my first tab here on Ultimate Guitar.com.  I saw this warm-up not
long ago, and it helped me so much that I decided to share it with those who
hadn't seen it before.

Tuning: Standard (eBGDAE)

e|-12-8-0-12-8-0-10-7-0-10-7-0-8-5-0-8-5-0-7-4-0-7-4-0-|
B|-----------------------------------------------------|
G|-----------------------------------------------------|
D|-----------------------------------------------------|
A|-----------------------------------------------------|
E|-----------------------------------------------------|

e|-----------------------------------------------------|
B|-12-8-0-12-8-0-10-7-0-10-7-0-8-5-0-8-5-0-7-4-0-7-4-0-|
G|-----------------------------------------------------|
D|-----------------------------------------------------|
A|-----------------------------------------------------|
E|-----------------------------------------------------|

e|-------------------------------------------------|
B|-------------------------------------------------|
G|-7-4-0-7-4-0-9-5-0-9-5-0-------------------------|
D|-------------------------9-5-0-9-5-0-7-4-0-7-4-0-|
A|-------------------------------------------------|
E|-------------------------------------------------|

e|------------------------------------------|
B|------------------------------------------|
G|------------------------------------------|
D|------------------------------------------|
A|-7-4-0-7-4-0-8-5-0-8-5-0-11-7-0-11-7-0-12-|
E|------------------------------------------|

The point of this work-out is to get comfortable playing using your pinky
and index fingers ONLY.  Play it through with no rests, and slowly increase
your speed as you become more proficient at it.  HAVE FUN!

NO TAPPING/PULL-OFFS!

============================================================================
Tap to rate this tab
 
# A B C D E F G H I J K L M N O P Q R S T U V W X Y Z