Song name
# A B C D E F G H I J K L M N O P Q R S T U V W X Y Z

Randy Rogers Band - Kiss Me In The Dark tab

I can play this song with a broken pinky so its really easy

CAPO 3

Relative to capo

e--------------------------3/5-3------------3/5--3----------------------------|
b-1/3/1--0------1/3/1--0---3/5-3--1/3/1--0--3/5--3--1---1-0-------1---1-0-----|
g-2/4/2--0------2/4/2--0----------2/4/2--0----------2h4-2-0----0--2h4-2-0--0--|
d----------2------------------------------------------------2--0---------2-0--|
a-----------------------------------------------------------------------------|
e-----------------------------------------------------------------------------|


e-----------3/5--3------------3/5--3-----------------------------------------|
b-1/3/1---0-3/5--3--1/3/1--0--3/5--3---1---1--0------------------------------|
g-2/4/2---0---------2/4/2--0-----------2h4-2--0------------------------------|
d----------------------------------------------2--0--------------------------|
a----------------------------------------------------2p0---------------------|
e--------------------------------------------------------3p0---0-------------|

More or less that's how you play it...that's for you baby girl
Tap to rate this tab
 
# A B C D E F G H I J K L M N O P Q R S T U V W X Y Z