Song name
# A B C D E F G H I J K L M N O P Q R S T U V W X Y Z

Randy Rogers Band - Buy Myself A Chance tab

No Capo
Standard tuning
Lead guitar:
e|---------------------------------------------------------------|
B|---------------------------------------------------------------|
G|---------------------------------------------------------------|
D|---------2---------------------2---------------------2(hold)---|
A|-------2---2h4(hold)-------------4-2---2h4---2---4p2-----------|
E|--00-4--------------------2b-0-------4---------4---------------| x2

e|---------------------------------------------------------------|
B|---------------------------------------------------------------|
G|---------------------------------------------------------------|
D|---------2-----------------------------------------------------|
A|-------2---2h4(hold)-------------------------------------------|
E|--00-4---------------------------------------------------------|

Rhythm Guitar:
C#m, E, C#m, E x2 

Strumming Pattern (BN= Base note (pm)= Palm Mute)- 
BN, D(pm), BN, D, U, D, U

C#m - x46654 or x42120 (BN in this chord is A string 4th fret)
E -   022100 (BN in this chord is low E string open)


-Parker Mathews
Tap to rate this tab
# A B C D E F G H I J K L M N O P Q R S T U V W X Y Z