Song name
# A B C D E F G H I J K L M N O P Q R S T U V W X Y Z

Randy Rogers Band - I Miss You With Me tab

This tab is based on the live version of the song.

Intro:
e|----0----------------0-----0------------------|
B|---3-3-----0----------0---3-2-0---------------|
G|--2---2---2--------0---0-------2--------------|
D|-0-----0-0---0-0--4------2------2-------------|
A|-----------------2------0---------------------|
E|--------3---3-2-0---0-------------------------|

e|----------------------0-----0-----------------|
B|---3----0---0----------0---3-2----------------|
G|--2-0--2---2--------0---0---------------------|
D|-0----0---0---0-0--4------2-------------------|
A|------------------2------0--------------------|
E|-----2---3---3-2-0----------------------------|

The second part of the intro is the basis for the song. Essentially it is that part 
with the words. I hope this helps!
Tap to rate this tab
# A B C D E F G H I J K L M N O P Q R S T U V W X Y Z