Song name
# A B C D E F G H I J K L M N O P Q R S T U V W X Y Z

Randy Vanwarmer - Just When I Needed You Most tab

Help us improve GuitareTab! Take a short survey!
E|-------------------------------------------|
B|2-2-2-2-3-5---2-2-2-2-3-5---2-2-2-2-3-5----|
G|-------------------------------------------|
D|---------------------------------------7---|
A|-------------------------------------------|
E|-------------------------------------------|

E|-2-2-2-5-5------------|
B|-----------2-0--------|
G|---------------2-2----|
D|----------------------|
A|----------------------|
E|----------------------|

E|-------------------------------------------------------------------|
B|-0-0-0-0-2-3-2---2-2-2-2-3-5---2-2-2-2-3-5---2-2-2-2-2----7-5-3-3--|
G|-------------------------------------------------------2-----------|
D|-------------------------------------------------------------------|
A|-------------------------------------------------------------------|
E|-------------------------------------------------------------------|

E|-----------------------------|
B|---10-2-0-----2-2-2-2-0------|
G|-2--------2-------------2-2--|
D|-----------------------------|
A|-----------------------------|
E|-----------------------------|
Related for Just When I Needed You Most tab