Song name
# A B C D E F G H I J K L M N O P Q R S T U V W X Y Z

Randy - Whom To Blame tab

-----------------------------------------------------------------------------
                             WHOM TO BLAME - Randy
-----------------------------------------------------------------------------
Tabbed by:filio96
E-mail:filiotrix@gmail.com

Tuning:Standard Tuning

P=Palm Mute

INTRO#2x 
e|---------------------------------------------------|
B|-----101010-9------101010-9------101010-8----------|
G|--66--9-9-9-8--6-4--9-9-9-8-------9-9-9-9----------|
D|--66--7-7-7-7--6-4--7-7-7-7--9-7--7-7-7-7--7-4---6-|
A|--44-----------4-2-----------9-7-----------7-4---6-|
E|-----------------------------7-5-----------5-2---4-|
 
INTERLUDE#
e|------|
B|------|
G|--6---|
D|--6---|
A|--4---|
E|------|

VERSE#2x
e|----------------|
B|-----5----------|
G|--6--4----------|
D|--6--2--7--4--6-|
A|--4--2--7--4--6-|
E|--------5--2--4-|

VERSE-Part2#
e|-------------------------------------------------|
B|-------------------------------------------------|
G|-------4444-6666-99-9-99-9-----------4444--------|
D|--7777-4444-6666-99-9-99-9-7777-4444-4444-66-66--|
A|--7777-2222-4444-77-7-77-7-7777-4444-2222-66-66--|
E|--5555-----------PP---PP---5555-2222------44-44--|

CHORUS#2x
e|-------------------------------------------------|
B|-------------------------------------------------|
G|---66666-------------------444444444--------44-4-|
D|---66666-66666-22222-44444-444444444--77-7--44-4-|
A|---44444-66666-22222-44444-222222222--77-7--22-2-|
E|---------44444-00000-22222------------55-5-------|

BRIDGE#
e|--------------------------------------------|
B|--999999999999999-101010-99999--------------|
G|--999999999999999--9-9-9-99999---666----66--|
D|---------------------------------666-66-66--|
A|---------------------------------444-66-44--|
E|-------------------------------------44-----|

e|--------------------------------------------------|
B|--999999999999999-101010-99999--------------------|
G|--999999999999999--9-9-9-99999---666----66--------|
D|---------------------------------666-66-66--99999-|
A|---------------------------------444-66-44--99999-|
E|-------------------------------------44-----77777-|
                                              PPPPP
VERSE#,INTRO#,VERSE-Part2#

INTERLUDE2#
e|-----|
B|-----|
G|-----|
D|--4--|
A|--4--|
E|--2--|

INTRO#

ENDING#
e|--------------------------------------------------------------|
B|-----101010-9------101010-9------101010-8---------------------|
G|--66--9-9-9-8--6-4--9-9-9-8-------9-9-9-9---------------6-4---|
D|--66--7-7-7-7--6-4--7-7-7-7--9-7--7-7-7-7--7-44-4-66-6--6-4-2-|
A|--44-----------4-2-----------9-7-----------7-44-4-66-6--4-2-2-|
E|-----------------------------7-5-----------5-22-2-44-4------0-|

************************************

| /   slide up
| \   slide down
| h   hammer-on
| p   pull-off
| ~   vibrato
| +   harmonic
| x   Mute note
| b   Bend
| pb  Pre-bend
| br  Bend release
| pbr Pre-bend release
| brb Bend release bend

************************************
Tap to rate this tab
# A B C D E F G H I J K L M N O P Q R S T U V W X Y Z