Song name
# A B C D E F G H I J K L M N O P Q R S T U V W X Y Z

Randy - Out Of Nothing Comes Nothing tab

Band  : Randy
Album : You cant keep a good band down
Song  : Out of nothing comes nothing
E-mail: Greenday_rhcp2002@yahoo.co.uk
Tabbed: greeday2003 Tuning: Standard


Intro/Verse
|----------------------------------------------------|
|----------------------------------------------------|
|-77777777----------77777777-------5/777-5/777-------|
|-77777777-55555555-77777777-7-5---5/777-5/777-5/777-|
|-55555555-55555555-55555555-7-5---3/555-3/555-5/777-|
|----------33333333----------5-3---------------3/555-|

Chorus 1
|-----------------------------------------|
|-----------------------------------------|
|------5555------5555------5555-----------|
|-3333-5555-5555-5555-3333-5555-5555-7777-|
|-3333-3333-5555-3333-3333-3333-5555-7777-|
|-1111------3333------1111------3333-5555-|

Versex2

Chorus2
|---------------------|---|---------------------|----|
|---------------------|---|---------------------|----|
|------5555------5555-|---|------5555-----------|-7~-|
|-3333-5555-5555-5555-|---|-3333-5555-5555-7777-|-7~-|
|-3333-3333-5555-3333-|x3-|-3333-3333-5555-7777-|-5~-|
|-1111------3333------|---|-1111------3333-5555-|----|


Bass solo


Outro
|-------------------------------------------------------|
|------8/7--------8/7-------------13/12-----------13/12-|
|-7777-------7777--------12121212--------12121212-------|
|-7777-------7777--------12121212--------12121212-------|
|-5555-------5555--------10101010--------10101010-------|
|-------------------------------------------------------|

|-------------------------------------------------------|
|------8/7--------8/7------------15/14-----------13/12--|
|-7777-------7777-------14141414--------12121212--------|
|-7777-------7777-------14141414--------12121212--------|
|-5555-------5555-------12121212--------10101010--------|
|-------------------------------------------------------|

|--------------------------|
|------8/7----5--------3---|
|-7777----------6--------4-|
|-7777-----77------55------|
|-5555-----77------55------|
|----------55------33------|x4


.2nd Gtr comes in, does arpeggios of the chords above on 3rd time of above x1
.Then start strumming away on the chords x1

.End with 1 gtr strumming down, and a 2nd alternative plucking whats below

Play till end
|-----------------------------------------------------------------|
|-----------------------------------------------------------------|
|-77777777-1212121212121212-77777777-14141414-12121212-7777-------|
|-77777777-1212121212121212-77777777-14141414-12121212-7777-77-55-|
|-55555555-1010101010101010-55555555-12121212-10101010-5555-77-55-|
|-----------------------------------------------------------55-33-|

End on D5

Your Best bet is to listen to the song while playing to figure out
the correct amount to play each chord. And the palm muting.
Great song. Great band.


Tap to rate this tab
# A B C D E F G H I J K L M N O P Q R S T U V W X Y Z