Song name
# A B C D E F G H I J K L M N O P Q R S T U V W X Y Z

Randy - Addicts Of Communication tab

Song-  Addicts of communication
Band-  Randy 'the band'
Album- The human atom bombs
e-mail- Greenday_rhcp2002@yahoo.co.uk

r=  let ring
pm= palm mute

Intro
|----------------------------|
|----------------------------|
|----------------------------|
|-10-10-10-10-7777-3333-5555-|
|-10-10-10-10-7777-3333-5555-| x3
|--8--8--8--8-5555-1111-3333-|

End of intro
|-------------------------|
|-------------------------|
|------5555------5555--5r-|
|-3333-5555-3333-5555--5r-|
|-3333-3333-3333-3333--3r-|x1
|-1111------1111----------|

Verse
|----------------------------|
|----------------------------|
|----------------------------|
|-10-10-10-10-7777-3333-5555-|
|-10-10-10-10-7777-3333-5555-| x8
|--8--8--8--8-5555-1111-3333-|
pm .  .  .    ...  ...  ...

post verse
|-------------------|
|-------------------|
|-------------------|
|-33333333-55555555-|
|-33333333-55555555-|
|-11111111-33333333-| x2


repeat all of the above without ring out in intro

Outro x2
|----------------------------|
|----------------------------|
|----------------------------|
|-10-10-10-10-7777-3333-5555-|
|-10-10-10-10-7777-3333-5555-| x3
|--8--8--8--8-5555-1111-3333-|

|---------------------|
|---------------------|
|------5555------5555-|
|-3333-5555-3333-5555-|
|-3333-3333-3333-3333-|
|-1111------1111------|x1


Ending
|---------------------------------------------|
|---------------------------------------------|
|------5555------5555------5555------5555--55-|
|-3333-5555-3333-5555-3333-5555-3333-5555--55-|
|-3333-3333-3333-3333-3333-3333-3333-3333--33-|
|-1111------1111------1111------1111----------|

rate plz.... Listen 2 d track 4 timing ect..Great band, great album
www.myspace.com/randytheband
Tap to rate this tab
# A B C D E F G H I J K L M N O P Q R S T U V W X Y Z