Song name
# A B C D E F G H I J K L M N O P Q R S T U V W X Y Z

Rantanplan - Jeder So Wie Er Kann tab

this song is very easy to play, so thats why i didnt write down any timemarks.
just listen to it once and you'll get it.
(the palm muted part isnt really played palm mute, they use this blurry effect but it 
alright if you play it that way)

Tuned: Standard


Intro

|------------------------------------------------|
|------------------------------------------------| 2x
|-------------7----------------------------------|
|-9-9--9-(3x)-5--5--5-(3x)-7--4-4----------------|
|-7-7--7---------3--3------5--2-2----------------|
|------------------------------------------------|

|------------------------------------------------------------|
|------------------------------------------------------------| 4x
|------------------------------------------------------------|
|-10-9----10-9----9------------9--------9-----10-10--10-9----|
|------10------10---10~-----10---10--10---10--------------10-|
|------------------------------------------------------------|
..............................pm..............................

|-----------------------------------------------------------------------|
|-----------------------------------------------------------------------|
|-----------------------------------------------------------------------|
|-10-9----10-9----9------------9-----------9-----------9-----------9----|
|------10------10---10~-----10---10--10-10---10--10-10---10--10-10---10-|
|-----------------------------------------------------------------------|
............pm............

Chours

|------------------------------------------------|
|------------------------------------------------| 4x
|------------------------------------------------|
|-2-2--5-5--7-7--9-(7x)--------------------------|
|-2-2--5-5--7-7--9-------------------------------|
|-0-0--3-3--5-5--7-------------------------------|

Verse

|------------------------------------------------------------|
|------------------------------------------------------------| 4x
|------------------------------------------------------------|
|-10-9----10-9----9------------9--------9-----10-10--10-9----|
|------10------10---10~-----10---10--10---10--------------10-|
|------------------------------------------------------------|
..............................pm..............................

|-----------------------------------------------------------------------|
|-----------------------------------------------------------------------|
|-----------------------------------------------------------------------|
|-10-9----10-9----9------------9-----------9-----------9-----------9----|
|------10------10---10~-----10---10--10-10---10--10-10---10--10-10---10-|
|-----------------------------------------------------------------------|
............pm............

Chours

|------------------------------------------------|
|------------------------------------------------| 4x
|------------------------------------------------|
|-2-2--5-5--7-7--9-(7x)--------------------------|
|-2-2--5-5--7-7--9-------------------------------|
|-0-0--3-3--5-5--7-------------------------------|

Outro

|------------------------------------------------|
|------------------------------------------------| 4x
|------------------------------------------------|
|-2-2--5-5--7-7--9-(7x)--------------------------|
|-2-2--5-5--7-7--9-------------------------------|
|-0-0--3-3--5-5--7-------------------------------|

|----|
|----|
|----|
|-2~-|
|-2~-|
|-0~-|

(c) xbinaryx
Tap to rate this tab
 
# A B C D E F G H I J K L M N O P Q R S T U V W X Y Z