Song name
# A B C D E F G H I J K L M N O P Q R S T U V W X Y Z

Raped Teenagers - Sill I Dill tab

"Sill I Dill" Raped Teenagers
From the "I Kraftans Klor LP"

intro
e|-------------------------------|
B|-------------------------------|
G|-------------------------------|
D|----------------------------99-|
A|----11----9-11---------11-9-99-|
E|-[9]----11------9-9-9-9-----77-|	[leave off after the first time]

Riff 1
e|-----------------------------|
B|-----------------------------|
G|-----------------------------|
D|------11-9-------6-4---------|
A|-8-99------7777--------------|
E|-----------------------------|

Verse (Played Between Riff 1)
e|-----------------------------|
B|-----------------------------|
G|--------------7777-8888-5555-|
D|--11-11-11-11-7777-8888-5555-|
A|--11-11-11-11-5555-6666-3333-|
E|--9--9--9--9-----------------|

Second Half of Verse
e|-----------------------------|
B|-----------------------------|
G|-----------444---------------|
D|---888-666-444---------------|
A|---888-666-222---------------|
E|---666-444-------------------|


Then comes this thing... chorus?
e|-----------------------------|
B|-----------------------------|
G|------------------------9----|
D|------10-8-------10--8-------|
A|-9999-------9999-------------|
E|-----------------------------|

song order:
intro x4
riff 1 x8
verse x1
riff 1 x8
verse x1
second half of verse x1
chorus x8
intro x4
riff 1 x8
verse x1
second half of verse x2
chorus x8
intro x2

http://www.austrinken.com/discographien/RapedTeenagers/raped_teenagers.htm
Tap to rate this tab
# A B C D E F G H I J K L M N O P Q R S T U V W X Y Z