Song name
# A B C D E F G H I J K L M N O P Q R S T U V W X Y Z

Raphael Saadiq - Stone Rollin tab

Tab Legend
v = Vibrato
/ = Slide

Chorus 1 (Listen to Song to Find Rhythm)
e|--7-----5------2----2--0--0--0--0--0--0--0--2--2--0-----------------------|
B|--7-----5------2----2--2--2--2--2--2--2--2--2--2--2-----------------------|
G|--------------------------------------------------------------------------|
D|--------------------------------------------------------------------------|
A|--------------------------------------------------------------------------|
E|--------------------------------------------------------------------------|


=============================================================================


Chorus 2 (Listen to Song to Find Rhythm)
e|--7-----5------2----2--0--0--0--0--0--0--0--0--0--2-----------------------|
B|--7-----5------2----2--2--2--2--2--2--2--2--2--2--2-----------------------|
G|--------------------------------------------------------------------------|
D|--------------------------------------------------------------------------|
A|--------------------------------------------------------------------------|
E|--------------------------------------------------------------------------|


=============================================================================

Solo
e|--------------------------------------------------------------------------|
B|--------------------------------------------------------------------------|
G|--------------------------------------------------------------------------|
D|--------------------------------------------------------------------------|
A|---------4----6----7vvvvv---4----6----7----7---7p6---4---2--0-1-----------|
E|-2vvv/6----------------------------------------------------------2--0---0-|




e|--------------------------------------------------------------------------|
B|--------------------------------------------------------------------------|
G|--------------------------------------------------------------------------|
D|--------------------------------------------------------------------------|
G|---------4----6----7vvvvv---4----6----7/9vvv--11--11---13--13--14--14/13--|
D|-2vvv/6-------------------------------------------------------------------|




e|--------------------------------------------------------------------------|
B|--------------------------------------------------------------------------|
G|--------------------------------------------------------------------------|
D|--------------------------------------------------------------------------|
A|-13/11--9vv---------------------------------------------------------------|
E|--------------------------------------------------------------------------|


=============================================================================

Hope you like the tab. Post a comment if there is an error.
Tap to rate this tab
 
# A B C D E F G H I J K L M N O P Q R S T U V W X Y Z