Song name
# A B C D E F G H I J K L M N O P Q R S T U V W X Y Z

Raphael Sas - Ich Kann Mich Noch Erinnern tab

-------------------------------------------------------------------------------
Ich kann mich noch erinnern - Raphael Sas
-------------------------------------------------------------------------------


This is a song of the viennese songwriter Raphael Sas. Tabbed by ear from the version of 
Balcony TV. Listen to it here: http://www.youtube.com/watch?feature=player_embedded&v=lLTEcBgV_xQ

You can vary the interlude part, depending if you have a melody instrument playing with you.


Tuning: Capo 4


Intro

e|----------0-----------0-----------0-----------0----------------------------|
B|--------0---0-------0---0-------0---0-------0---0--------------------------|
G|-----0--------0---0-------0---0-------0---0-------0------------------------|
D|----------------------------2----------------------------------------------|
A|----------------2-----------------------2----------------------------------|
E|--0------------------------------------------------------------------------|

e|----------0-----------0-----------0-----------0----------------------------|
B|--------0---0-------0---0-------0---0-------0---0--------------------------|
G|-----0--------0---0-------0---0-------0---0-------0------------------------|
D|----------------------------2----------------------------------------------|
A|----------------2-----------------------2----------------------------------|
E|--0------------------------------------------------------------------------|


Verse

e|--------0-----------0-----------0-----------0------------------------------|
B|------0---0-------0---0-------0---0-------0---0----------------------------|
G|----0-------0---0-------0---0-------0---0-------0--------------------------|
D|--------------------------2------------------------------------------------|
A|--------------2-----------------------2------------------------------------|
E|--0------------------------------------------------------------------------|

e|--------3-----------3-----------3-----------3------------------------------|
B|------1---1-------1---1-------1---1-------1---1----------------------------|
G|----0-------0---0-------0---0-------0---0-------0--------------------------|
D|--------------2-----------------------2------------------------------------|
A|--3-----------------------3------------------------------------------------|
E|---------------------------------------------------------------------------|

e|--------0-----------0-----------0-----------0------------------------------|
B|------3---3-------3---3-------3---3-------3---3----------------------------|
G|----4-------4---4-------4---4-------4---4-------4--------------------------|
D|--------------4-----------------------4------------------------------------|
A|---------------------------------------------------------------------------|
E|--3-----------------------3------------------------------------------------|

e|--------2-----------2-----------2-----------2------------------------------|
B|------3---3-------3---3-------3---3-------3---3----------------------------|
G|----2-------2---2-------2---0-------0---2-------2--------------------------|
D|--0-----------4-----------2-----------0------------------------------------|
A|---------------------------------------------------------------------------|
E|---------------------------------------------------------------------------|

e|--------0-----------0-----------0-----------0------------------------------|
B|------0---0-------0---0-------0---0-------0---0----------------------------|
G|----0-------0---0-------0---0-------0---0-------0--------------------------|
D|--------------------------2------------------------------------------------|
A|--------------2-----------------------2------------------------------------|
E|--0------------------------------------------------------------------------|

e|--------3-----------3-----------3-----------3------------------------------|
B|------1---1-------1---1-------1---1-------1---1----------------------------|
G|----0-------0---0-------0---0-------0---0-------0--------------------------|
D|--------------2-----------------------2------------------------------------|
A|--3-----------------------3------------------------------------------------|
E|---------------------------------------------------------------------------|

e|--------0-----------0-----------0-----------0------------------------------|
B|------3---3-------3---3-------3---3-------3---3----------------------------|
G|----4-------4---4-------4---4-------4---4-------4--------------------------|
D|--------------4-----------------------4------------------------------------|
A|---------------------------------------------------------------------------|
E|--3-----------------------3------------------------------------------------|

e|--------2-----------2-----------2-----------2------------------------------|
B|------0---0-------0---0-------0---0-------0---0----------------------------|
G|----2-------2---2-------2---2-------2---2-------2--------------------------|
D|--------------1-----------------------1------------------------------------|
A|--2-----------------------2------------------------------------------------|
E|---------------------------------------------------------------------------|


e|--------0-----------0-----------0-----------0------------------------------|
B|------0---0-------0---0-------0---0-------0---0----------------------------|
G|----0-------0---0-------0---0-------0---0-------0--------------------------|
D|--------------------------2------------------------------------------------|
A|--------------2-----------------------2------------------------------------|
E|--0------------------------------------------------------------------------|

e|--------3-----------3-----------3-----------3------------------------------|
B|------1---1-------1---1-------1---1-------1---1----------------------------|
G|----0-------0---0-------0---0-------0---0-------0--------------------------|
D|--------------2-----------------------2------------------------------------|
A|--3-----------------------3------------------------------------------------|
E|---------------------------------------------------------------------------|

e|--------0-----------0-----------0-----------0------------------------------|
B|------3---3-------3---3-------3---3-------3---3----------------------------|
G|----4-------4---4-------4---4-------4---4-------4--------------------------|
D|--------------4-----------------------4------------------------------------|
A|---------------------------------------------------------------------------|
E|--3-----------------------3------------------------------------------------|

e|--------2-----------2-----------2-----------2------------------------------|
B|------3---3-------3---3-------3---3-------3---3----------------------------|
G|----2-------2---2-------2---0-------0---2-------2--------------------------|
D|--0-----------4-----------2-----------0------------------------------------|
A|---------------------------------------------------------------------------|
E|---------------------------------------------------------------------------|

e|--------0-----------0-----------0-----------0------------------------------|
B|------0---0-------0---0-------0---0-------0---0----------------------------|
G|----0-------0---0-------0---0-------0---0-------0--------------------------|
D|--------------------------2------------------------------------------------|
A|--------------2-----------------------2------------------------------------|
E|--0------------------------------------------------------------------------|

e|--------3-----------3-----------3-----------3------------------------------|
B|------1---1-------1---1-------1---1-------1---1----------------------------|
G|----0-------0---0-------0---0-------0---0-------0--------------------------|
D|--------------2-----------------------2------------------------------------|
A|--3-----------------------3------------------------------------------------|
E|---------------------------------------------------------------------------|

e|--------0-----------0-----------0-----------0------------------------------|
B|------3---3-------3---3-------3---3-------3---3----------------------------|
G|----4-------4---4-------4---4-------4---4-------4--------------------------|
D|--------------4-----------------------4------------------------------------|
A|---------------------------------------------------------------------------|
E|--3-----------------------3------------------------------------------------|

e|--------2-----------2-----------2-----------2------------------------------|
B|------0---0-------0---0-------0---0-------0---0----------------------------|
G|----2-------2---2-------2---2-------2---2-------2--------------------------|
D|--------------1-----------------------1------------------------------------|
A|--2-----------------------2------------------------------------------------|
E|---------------------------------------------------------------------------|


Chorus

C       G       D       Am
C       G       B7      B7


Interlude

e|--------0-----------0-----------0-----------0------------------------------|
B|------0---0-------0---0-------0---0-------0---0----------------------------|
G|----0-------0---0-------0---0-------0---0-------0--------------------------|
D|--------------------------2------------------------------------------------|
A|--------------2-----------------------2------------------------------------|
E|--0------------------------------------------------------------------------|

e|--------3-----------3-----------3-----------3------------------------------|
B|------1---1-------1---1-------1---1-------1---1----------------------------|
G|----0-------0---0-------0---0-------0---0-------0--------------------------|
D|--------------2-----------------------2------------------------------------|
A|--3-----------------------3------------------------------------------------|
E|---------------------------------------------------------------------------|

e|--------0-----------0-----------0-----------0------------------------------|
B|------3---3-------3---3-------3---3-------3---3----------------------------|
G|----4-------4---4-------4---4-------4---4-------4--------------------------|
D|--------------4-----------------------4------------------------------------|
A|---------------------------------------------------------------------------|
E|--3-----------------------3------------------------------------------------|

e|--------2-----------2-----------2-----------2------------------------------|
B|------3---3-------3---3-------3---3-------3---3----------------------------|
G|----2-------2---2-------2---0-------0---2-------2--------------------------|
D|--0-----------4-----------2-----------0------------------------------------|
A|---------------------------------------------------------------------------|
E|---------------------------------------------------------------------------|

e|--------0-----------0-----------0-----------0------------------------------|
B|------0---0-------0---0-------0---0-------0---0----------------------------|
G|----0-------0---0-------0---0-------0---0-------0--------------------------|
D|--------------------------2------------------------------------------------|
A|--------------2-----------------------2------------------------------------|
E|--0------------------------------------------------------------------------|

e|--------3-----------3-----------3-----------3------------------------------|
B|------1---1-------1---1-------1---1-------1---1----------------------------|
G|----0-------0---0-------0---0-------0---0-------0--------------------------|
D|--------------2-----------------------2------------------------------------|
A|--3-----------------------3------------------------------------------------|
E|---------------------------------------------------------------------------|

e|--------0-----------0-----------0-----------0------------------------------|
B|------3---3-------3---3-------3---3-------3---3----------------------------|
G|----4-------4---4-------4---4-------4---4-------4--------------------------|
D|--------------4-----------------------4------------------------------------|
A|---------------------------------------------------------------------------|
E|--3-----------------------3------------------------------------------------|

e|--------2-----------2-----------2-----------2------------------------------|
B|------0---0-------0---0-------0---0-------0---0----------------------------|
G|----2-------2---2-------2---2-------2---2-------2--------------------------|
D|--------------1-----------------------1------------------------------------|
A|--2-----------------------2------------------------------------------------|
E|---------------------------------------------------------------------------|


Verse

e|--------0-----------0-----------0-----------0------------------------------|
B|------0---0-------0---0-------0---0-------0---0----------------------------|
G|----0-------0---0-------0---0-------0---0-------0--------------------------|
D|--------------------------2------------------------------------------------|
A|--------------2-----------------------2------------------------------------|
E|--0------------------------------------------------------------------------|

e|--------3-----------3-----------3-----------3------------------------------|
B|------1---1-------1---1-------1---1-------1---1----------------------------|
G|----0-------0---0-------0---0-------0---0-------0--------------------------|
D|--------------2-----------------------2------------------------------------|
A|--3-----------------------3------------------------------------------------|
E|---------------------------------------------------------------------------|

e|--------0-----------0-----------0-----------0------------------------------|
B|------3---3-------3---3-------3---3-------3---3----------------------------|
G|----4-------4---4-------4---4-------4---4-------4--------------------------|
D|--------------4-----------------------4------------------------------------|
A|---------------------------------------------------------------------------|
E|--3-----------------------3------------------------------------------------|

e|--------2-----------2-----------2-----------2------------------------------|
B|------3---3-------3---3-------3---3-------3---3----------------------------|
G|----2-------2---2-------2---0-------0---2-------2--------------------------|
D|--0-----------4-----------2-----------0------------------------------------|
A|---------------------------------------------------------------------------|
E|---------------------------------------------------------------------------|

e|--------0-----------0-----------0-----------0------------------------------|
B|------0---0-------0---0-------0---0-------0---0----------------------------|
G|----0-------0---0-------0---0-------0---0-------0--------------------------|
D|--------------------------2------------------------------------------------|
A|--------------2-----------------------2------------------------------------|
E|--0------------------------------------------------------------------------|

e|--------3-----------3-----------3-----------3------------------------------|
B|------1---1-------1---1-------1---1-------1---1----------------------------|
G|----0-------0---0-------0---0-------0---0-------0--------------------------|
D|--------------2-----------------------2------------------------------------|
A|--3-----------------------3------------------------------------------------|
E|---------------------------------------------------------------------------|

e|--------0-----------0-----------0-----------0------------------------------|
B|------3---3-------3---3-------3---3-------3---3----------------------------|
G|----4-------4---4-------4---4-------4---4-------4--------------------------|
D|--------------4-----------------------4------------------------------------|
A|---------------------------------------------------------------------------|
E|--3-----------------------3------------------------------------------------|

e|--------2-----------2-----------2-----------2------------------------------|
B|------0---0-------0---0-------0---0-------0---0----------------------------|
G|----2-------2---2-------2---2-------2---2-------2--------------------------|
D|--------------1-----------------------1------------------------------------|
A|--2-----------------------2------------------------------------------------|
E|---------------------------------------------------------------------------|


e|--------0-----------0-----------0-----------0------------------------------|
B|------0---0-------0---0-------0---0-------0---0----------------------------|
G|----0-------0---0-------0---0-------0---0-------0--------------------------|
D|--------------------------2------------------------------------------------|
A|--------------2-----------------------2------------------------------------|
E|--0------------------------------------------------------------------------|

e|--------3-----------3-----------3-----------3------------------------------|
B|------1---1-------1---1-------1---1-------1---1----------------------------|
G|----0-------0---0-------0---0-------0---0-------0--------------------------|
D|--------------2-----------------------2------------------------------------|
A|--3-----------------------3------------------------------------------------|
E|---------------------------------------------------------------------------|

e|--------0-----------0-----------0-----------0------------------------------|
B|------3---3-------3---3-------3---3-------3---3----------------------------|
G|----4-------4---4-------4---4-------4---4-------4--------------------------|
D|--------------4-----------------------4------------------------------------|
A|---------------------------------------------------------------------------|
E|--3-----------------------3------------------------------------------------|

e|--------2-----------2-----------2-----------2------------------------------|
B|------3---3-------3---3-------3---3-------3---3----------------------------|
G|----2-------2---2-------2---0-------0---2-------2--------------------------|
D|--0-----------4-----------2-----------0------------------------------------|
A|---------------------------------------------------------------------------|
E|---------------------------------------------------------------------------|

e|--------0-----------0-----------0-----------0------------------------------|
B|------0---0-------0---0-------0---0-------0---0----------------------------|
G|----0-------0---0-------0---0-------0---0-------0--------------------------|
D|--------------------------2------------------------------------------------|
A|--------------2-----------------------2------------------------------------|
E|--0------------------------------------------------------------------------|

e|--------3-----------3-----------3-----------3------------------------------|
B|------1---1-------1---1-------1---1-------1---1----------------------------|
G|----0-------0---0-------0---0-------0---0-------0--------------------------|
D|--------------2-----------------------2------------------------------------|
A|--3-----------------------3------------------------------------------------|
E|---------------------------------------------------------------------------|

e|--------0-----------0-----------0-----------0------------------------------|
B|------3---3-------3---3-------3---3-------3---3----------------------------|
G|----4-------4---4-------4---4-------4---4-------4--------------------------|
D|--------------4-----------------------4------------------------------------|
A|---------------------------------------------------------------------------|
E|--3-----------------------3------------------------------------------------|

e|--------2-----------2-----------2-----------2------------------------------|
B|------0---0-------0---0-------0---0-------0---0----------------------------|
G|----2-------2---2-------2---2-------2---2-------2--------------------------|
D|--------------1-----------------------1------------------------------------|
A|--2-----------------------2------------------------------------------------|
E|---------------------------------------------------------------------------|


Chorus

C       G       D       Am
C       G       B7      B7
C       G       D       Am
C       G       B7      B7
Em Em/Gb
Tap to rate this tab
 
# A B C D E F G H I J K L M N O P Q R S T U V W X Y Z