Song name
# A B C D E F G H I J K L M N O P Q R S T U V W X Y Z

Raphael - Et Dans 150 Ans tab

INTRO
   C
E||--------3-----------|
B||--1--------1--------|
G||--------0-----0-----|  X4
D||-----2-----------2--|
A||--3-----------------|
E||--------------------|

Here are the appregios of each chords. They vary slightly but not much, you should be 
to work it out for yourself.

     C                  F                    Dm
E||3--------3-------|1----------1-------|1--------1---------|
B||---1--------1----|---1----------1----|---3----------3----|
G||------0--------0-|--------2--------2-|------2----------2-|
D||-----------------|-------------------|0------------------|
A||3----------------|-------------------|-------------------|
E||-----------------|1------------------|-------------------|
      G                Am
E||------------------|------------------|
B||0-----3--0--------|-3--------1-------|
G||---0--------0-----|----2--------2----|
D||---------------0--|-------2--------2-|
A||------------------|-0----------------|
E||3-----------------|------------------|

         C
dans 150 ans
                    F
on s'en souviendra pas
               Dm
de ta première ride
                G
de nos mauvais choix
                   C
de la vie qui nous baise
                       F
de tous ces marchands d'armes
                         Dm
des types qui votent les lois
                  G
là-bas au gouvernement
                 Am
de ce monde qui pousse
             F
de ce monde crie
              Dm
du temps qui avance
             G
de la mélancolie
                 Am
la chaleur des baisers
                   F
et cette pluie qui coule
               Dm
et de l'amour blessé
                         G
et de tout ce qu'on nous roule
         C (appregio'd in the style of the intro)
alors souris

All the following verses follow the same pattern.
Tap to rate this tab
# A B C D E F G H I J K L M N O P Q R S T U V W X Y Z