Guitaretab - guitar tabs
Song name
# A B C D E F G H I J K L M N O P Q R S T U V W X Y Z

Rapture Ruckus - Thankyou tab

Song: Thankyou
Email: Guitar_Guy18@hotmail.com
Tabbed By: Bullet4Myself


|--------------------------------------|
|--------------------------------------|
|--------10--9---7~-----7--------7-----|
|-----7----------------------0--0------|
|--5-----------------------------------|
|--------------------------------------|
[ Tab from: http://www.guitaretab.com/r/rapture-ruckus/111918.html ]
|--------------------------------------|
|--------------------------------------|
|--------7---9---7/10------------------|
|-----7--------------------------------|
|--5-----------------------------------|
|--------------------------------------|

And its pretty much that through the hole entire song. I know its not perfect but i 
find this tab any where so i put it on myself, thanks and please comment me =]

http://www.raptureruckus.com/site.html
Related for Thankyou tab
Advertisement will be closed in 10 seconds