Song name
# A B C D E F G H I J K L M N O P Q R S T U V W X Y Z

Rapture - No Sex For Ben tab

Chorus guitar

e---------------------------------|  x8
b------15-13-15-----15-13-13-15---|
g---12-----------12---------------|
d---------------------------------|
a---------------------------------|
e---------------------------------|


2nd verse

e--------------------|
b--------------------|
g---------------3----|
d--5---5-5-5-5--3----|
a--5---5-5-5-5--1----|
e--3---3-3-3-3-------|

2nd time

e------------------------------|
b------------------------------|
g---------------3--------------|
d--5---5-5-5-5--3----10p8-5p3--|
a--5---5-5-5-5--1--------------|
e--3---3-3-3-3-----------------|


play through bridge
e--------------------|
b--------------------|
g---------------3----|
d--5---5-5-5-5--3----|
a--5---5-5-5-5--1----|
e--3---3-3-3-3-------|

Tap to rate this tab
 
# A B C D E F G H I J K L M N O P Q R S T U V W X Y Z