Song name
# A B C D E F G H I J K L M N O P Q R S T U V W X Y Z

Rapture - Out Of The Races And Onto The Tracks tab

Intro:

----------------------------------------------
--12---10---8--7---5---3---2---0-4-4/5/4~-----
----12---11---9--7---6---4---2----------------
----------------------------------------------
----------------------------------------------
----------------------------------------------  x3

Then:

---9---9-10-11-12121212-12-------------
---9---9-10-11-12121212-12-------------
---9---9-10-11-12121212-12-------------
---9~~-9-10-11-12121212-12~~-----------
---------------------------------------
---------------------------------------

Verse:(with bass)

-12-------|-12-12-12-12------12--------
-12-------|-12-12-12-12------12--------
-12~~-x6--|-12-12-12-12------12~~------
----------|----------------------------
----------|----------------------------
----------|----------------------------  


Chorus:

-12--12--12--12-------------
---12--12--12--12-----------
----------------------------
----------------------------
----------------------------
---------------------------- x8


well thats just the basis of the song...you can fool around with alot
of parts with pull offs and stuff...later

The rapture is great
Tap to rate this tab
# A B C D E F G H I J K L M N O P Q R S T U V W X Y Z