Song name
# A B C D E F G H I J K L M N O P Q R S T U V W X Y Z

Rapture - Whoo Alright Yeah tab

#----------------------------------PLEASE NOTE--------------------------------#
#This file is the author's own work and represents their interpretation of the#
#song. You may only use this file for private study, scholarship, or research.#
#-----------------------------------------------------------------------------#
#-- File created with Instab - http://www.pconline.com/~smcarey/instab.html --#
#-----------------------------------------------------------------------------#

Author/Artist: The Rapture
Title: Whoo! Alright Yeah
Album: Pieces Of The People We Love
Transcribed by: charlie frakes
Email: sk8er_boy_c@hotmail.com

this is the main riff which is repeated for nearly all the song

 e-------9--6-6-6-6-6---|
 b----------6-6-6-6-6---|
 g--8/10----------------|
 d----------------------|
 a----------------------|
 E----------------------|

or you can do it like this:

 e------------13-13-13-13-13---|
 b--------14--14-14-14-14-14---|
 g------------15-15-15-15-15---|
 d--13/15----------------------|
 a-----------------------------|
 e-----------------------------|
                                                                              listen to 
song and you'll get the timing right! i prefer the second one.

 sometimes it sounds better without the F(13) from the high e-string, decide yourself as 
just any b-flat minor!
Tap to rate this tab
# A B C D E F G H I J K L M N O P Q R S T U V W X Y Z