Song name
# A B C D E F G H I J K L M N O P Q R S T U V W X Y Z

Raq - Beauregard tab

----------------------------------------------------------------------------
			     Beauregard - Raq
----------------------------------------------------------------------------
Tabbed by: Andrew P. Hamm
Email: aphamm65@yahoo.com

Band website: http://www.raqmusic.com

Tuning: Standard

There are a few riffs and they repeat throughout the song.

    The main guitar riff
e|------------------|-------------------|----------------|-----------------|
B|---------10-------|----10----13-12-11-|--9---12-11-9---|9-10-11-10-9-----|
G|----10------10----|/10----10----------|9---9---------10|-------------10-9|
D|-12----12------12-|-------------------|----------------|-----------------|
A|------------------|-------------------|----------------|-----------------|
E|------------------|-------------------|----------------|-----------------|

e|---------------------------------------------------------------------9-10|
B|--------10-----------10----13-12-11-----9---12-11-9--------9-10-11-12----|
G|---10------10----/10----10------------9---9--------10-11-12--------------|
D|12----12------12---------------------------------------------------------|
A|-------------------------------------------------------------------------|
E|-------------------------------------------------------------------------|

     The rythym part through the verse is this:
e|-------------------------------------------------------------------------|
B|-------------------------------------------------------------------------|
G|-7--7----10--10----9--9----8--8------------------------------------------|
D|-7--7----10--10----9--9----8--8------------------------------------------|
A|-5--5----8---8-----7--7----6--6------------------------------------------|
E|-------------------------------------------------------------------------|

   Pre Chorus
e|-----------------------------------|-------------------------------------|
B|-----------------------------------|-------------------------------------|
G|-7--7----10--10----9--9----3---5---|---7---10--9---8---------------------|
D|-7--7----10--10----9--9----3---5---|---7---10--9---8---To-Chorus---------|
A|-5--5----8---8-----7--7----1---3---|---5---8---7---6---------------------|
E|-----------------------------------|-------------------------------------|
    Chorus:
e|----------------------------|--------------------------------------------|
B|----------------------------|--------------------------------------------|
G|-3---------------7------5---|--3----------9----8-------------------------|
D|-3------3--------7------5---|--3-----3----9----8--Back-to-verse----------|
A|-1------3--------5------3---|--1-----3----7----6-------------------------|
E|--------1--1-0--------------|--------1-----------------------------------|


| /  slide up
| \  slide down
| h  hammer-on
| p  pull-off
| ~  vibrato
| +  harmonic
| x  Mute note
============================================================================
Tap to rate this tab
# A B C D E F G H I J K L M N O P Q R S T U V W X Y Z