Song name
# A B C D E F G H I J K L M N O P Q R S T U V W X Y Z

Ras Cricket - Skin tab

Intro.
e--------3----- |  ------3----- |  ------0----- |  ------3------|
B--------3----- |  ------2----- |  ------0----- |  ------3------|
G-----0-----0-- |  ---3-----3-- |  ---0-----0-- |  ---0-----0---|
D-------------- |  0----------- |  ------------ |  -------------| x4
A-------------- |  ------------ |  2----------- |  3------------|
E--3----------- |  ------------ |  ------------ |  -------------|

Ref.
e--------3----- |  ------3------ |  ------3----- |  ------3------|
B--------3----- |  ------3------ |  ------3----- |  ------3------|
G-----0-----0-- |  ---0-----0--- |  ---0-----0-- |  ---0-----0---|
D-------------- |  ------------- |  ------------ |  -------------| x15
A-------------- |  3------------ |  ------------ |  3------------|
E--3----------- |  ------------- |  3----------- |  -------------|

Nice song!
Tap to rate this tab
# A B C D E F G H I J K L M N O P Q R S T U V W X Y Z