Song name
# A B C D E F G H I J K L M N O P Q R S T U V W X Y Z

Ras Cricket - Skin tab


                       Skin - Ras Cricket
             
 Hi! i think this is a beutyful song, and i couldn´t find many tabs on it, so i 
desided to make one on my 
 own :D Hope you enjoy :D
 

Chords:


          G            D            Em7         Cadd?
E|--------3------------x------------0------------x-----------------|
A|--------2------------x------------2------------3-----------------|
D|--------0------------0------------2------------2-----------------|
G|--------0------------2------------0------------0-----------------|
B|--------3------------3------------3------------3-----------------|
e|--------3------------2------------3------------3-----------------|

| h = hammer on

Chorus

  G                D                Em7               Cadd
E|----3------------------------------0-----------------------------|
A|--------------------------------------------------0h3------------|
D|--------0-----0-----0-----------------2-------2--------2-----2---|    
G|-----------0-----------2-----2------------0---------------0------|
B|-----------3--------------3---------------3---------------3------|
e|-----------3--------------2---h3----------3---------------3------|
 | Possibly: Chord harmony
 | G                            D                
 | v  v ^ v  v ^ v  v ^ v  v ^  v  v ^ v  v ^ v  v ^ v  v ^
E|-3--3-3-3--3-3-3--3-3-3--3-3-------------------------------------|  
A|-2--2-2-2--2-2-2--2-2-2--2-2-------------------------------------|    
D|-0--0-0-0--0-0-0--0-0-0--0-0--0--0-0-0--0-0-0--0-0-0--0-0--------|    
G|-0--0-0-0--0-0-0--0-0-0--0-0--2--2-2-2--2-2-2--2-2-2--2-2--------|    
B|-3--3-3-3--3-3-3--3-3-3--3-3--3--3-3-3--3-3-3--3-3-3--3-3--------|    
e|-3--3-3-3--3-3-3--3-3-3--3-3--2--2-2-2--2-2-2--2-2-2--2-2h3------|   
   Em7                          Cadd
   v  v ^ v  v ^ v  v ^ v  v ^  v  v ^ v  v ^ v  v ^ v  v ^ 
E|-0--0-0-0--0-0-0--0-0-0--0-0--------------------------------------|
A|-2--2-2-2--2-2-2--2-2-2--2-2--3--3-3-3--3-3-3--3-3-3--3-3---------|
D|-2--2-2-2--2-2-2--2-2-2--2-2--2--2-2-2--2-2-2--2-2-2--2-2---------|
G|-0--0-0-0--0-0-0--0-0-0--0-0--0--0-0-0--0-0-0--0-0-0--0-0---------|
B|-3--3-3-3--3-3-3--3-3-3--3-3--3--3-3-3--3-3-3--3-3-3--3-3---------|
e|-3--3-3-3--3-3-3--3-3-3--3-3--3--3-3-3--3-3-3--3-3-3--3-3---------| 

Verse

   G                 Cadd                 G                 Cadd
E|--3-----------------------------------|
A|-----------------0-h3-----------------|
D|-------0-----0---------2-------2------|
G|----------0----------------0----------|
B|----------3----------------3----------|
e|----------3----------------3----------|
 | Possibly: Chord harmony
 | G                            Cadd
 | v  v ^ v  v ^ v  v ^ v  v ^  v  v ^ v  v ^ v  v ^ v  v ^                 
E|-3--3-3-3--3-3-3--3-3-3--3-3--------------------------------------|  
A|-2--2-2-2--2-2-2--2-2-2--2-2--3--3-3-3--3-3-3--3-3-3--3-3---------|    
D|-0--0-0-0--0-0-0--0-0-0--0-0--2--2-2-2--2-2-2--2-2-2--2-2---------|    
G|-0--0-0-0--0-0-0--0-0-0--0-0--0--0-0-0--0-0-0--0-0-0--0-0---------|    
B|-3--3-3-3--3-3-3--3-3-3--3-3--3--3-3-3--3-3-3--3-3-3--3-3---------|    
e|-3--3-3-3--3-3-3--3-3-3--3-3--3--3-3-3--3-3-3--3-3-3--3-3---------|   

______________________________________________________

0:01
Intro: G, D, Em7, Cadd

 
   [Chorus]
G                  D
Skin, skin som den sol du är.

   Em7                   Cadd
Låt hela världen se ditt vackra leende.

            G                D
[Jag säger] Lys, lys som den stjärna du är.

   Em7                           Cadd
Du lyser upp mitt mörker och jag känner du är med

       G               Cadd
Hur du rör mig, talar, sättet du ser mig.

Em7                          Cadd
   Tack mitt hjärta för alla stunder du ger mig.

G                            D
   Tack mitt hjärta för alla stunder du ger mig.

Em7                          Cadd
                    ...Ehh...


_______________________________________________________
                                                       |
0:32                                                   |
   [Verse 1]                                           |
                                                       |
G                           Cadd                       |
Sitter här på tåget ser hur meter blir till mil.       |
                                                       |
G                           Cadd                       |
Saknar jag din doft och din vakra profil.              |
                                                       |
           G                  Cadd                     |
Diggar din stil och sättet du är på.                   |
                                                       |
           G                        Cadd               |
Diggar din stil, ja du vet det bara är så.             |
                                                       |
             G                      Cadd               |
För det bara blev så, vet du kan förstå.               |
                                                       |
                  G                  Cadd              |
Tror det finns en högre plan för oss två               |
                                                       |
              G                                        |
Känner när vi ser varann,                              |
                                                       |
       Cadd                                            |
Hur du håller i min hand.                              |
                                                       |
   G                       Cadd                        |
Nu är vi långt isär, olika städer i vårt land.         |
                                                       |
G                      Cadd                            |
Värme som sätter mig i brand.                          |
                                                       |
        G                         Cadd                 |
Och jag känner hur den glöder min vän,                 |
                                                       |
              G                     Cadd               |
Passionen och kärleken de växer med den.               |
                                                       |
         G                         Cadd                |
Kan vara mörkret där ljuset kommer sen.                |
                                                       |
             G                     Cadd                |
Svårt att ta farväl, svårt att va' isär.               |
                                                       |
            G                          Cadd            |
Önskar mitt hjärta, jag önskar du vore här             |
                                                       |
                   G                   Cadd            |
Jag önskar du vore här.                     ...Ehh...  |
                                                       |
                                                       | 
                                                       |
_______________________________________________________|


1:20
   [Chorus]
G                 D
Skin. skin som den sol du är...



_______________________________________________________
                                                       |
1:46                                                   |
   [Verse 2]                                           |          
                                                       |
   G                      Cadd                         |                              
Försöker förklara, jag försöker berätta,               |
                                                       |
G                         Cadd                         |
Hur du lyfter mig, får en tung man att lätta.          |
                                                       |
G                            Cadd                      |                                 
Försöker sätta ihop fast det inte riktigt går.         |
                                                       |
G                   Cadd                               |
Värmen och kärleken läker mina sår.                    |
                                                       |
G                                    Cadd              |
Tack för att du håller i mig när jag ostadigt står     |
                                                       |
G                        Cadd                          |
Känner du förstår vad jag genom går.                   |
                                                       |
        G                 Cadd                         |
Tills vi möts igen sitter jag och räknar dar.          |
                                                       |
      G                      Cadd                      |
Du är speciell, för mig helt underbar.                 |
                                                       |
         G                Cadd                  G      |
Jag står kvar, to my insperation and my shining star.  |
                                                       |
           Cadd                  G                     |
To my insperation and my shining star.                 |
                                                       |
                            Cadd                       |
                  ...Ehh...                            |
                                                       |
                                                       |
                                                       |
_______________________________________________________|

2:21
   [Chorus]

G                  D
Skin, skin som den sol du är...



________________________________________________________

2:46

Entro: 
(Slow)
   G                D                Em7               Cadd       G
E|----3------------------------------0----------------------------3----|
A|--------------------------------------------------0h3------------2---|
D|--------0-----0-----0-----------------2-------2--------2-----2----0--|    
G|-----------0-----------2-----2------------0---------------0--------0-|
B|-----------3--------------3---------------3---------------3--------3-|
e|-----------3--------------2---h3----------3---------------3--------3-|
Tap to rate this tab
 
# A B C D E F G H I J K L M N O P Q R S T U V W X Y Z