Song name
# A B C D E F G H I J K L M N O P Q R S T U V W X Y Z

Ras Matthew - Ganja In My Brain tab

-------------------------------------------------------------------------------
			     GANJA IN MY BRAIN – Ras Matthew
-------------------------------------------------------------------------------
Tabbed by: Sabliley
Email: holgui@hotmail.co.uk

Tuning: EADGBe


e|--5--5--3--3--1--1--0--0--------------------------------------------------|
B|--5--5--3--3--1--1--0--0--------------------------------------------------|
G|--5--5--4--4--2--2--1--1--------------------------------------------------|
D|--7--7--5--5--3--3--2--2--------------------------------------------------|
A|--7--7--5--5--3--3--2--2--------------------------------------------------|
E|--5--5--3--3--1--1--0--0--------------------------------------------------|

That’s the rhytmn during the whole song...
Tap to rate this tab
 
# A B C D E F G H I J K L M N O P Q R S T U V W X Y Z