Song name
# A B C D E F G H I J K L M N O P Q R S T U V W X Y Z

Rascal Flatts - Here Comes Goodbye tab

Here Comes Goodbye - Rascal Flatts

This song and solo rocks!

b - Bend
r - Release
\ - Slide down
/ - Slide up
v - Vibrato/Shake

e|----------15------------15---------15-------------------------|
B|---/17b19------17b19vv-------17b19-----17b19r17---15---10-----|
G|--------------------------------------------------------------|
D|--------------------------------------------------------------|
A|--------------------------------------------------------------|
E|--------------------------------------------------------------|

e|-------------------------------------|
B|----/7--8--10---/14--15--17--20b22---|
G|-------------------------------------|
D|-------------------------------------|
A|-------------------------------------|
E|-------------------------------------|

Here's the only hard part (for me cause my guitar has 22 frets)

e|----------22---------22-----------------------------------|
B|---22b24------22b24------22b24r22----20---20vv------20b22-|
G|----------------------------------------------------------|
D|----------------------------------------------------------|
A|----------------------------------------------------------|
E|----------------------------------------------------------|

e|---14-----14-----14-----14----------12-----12-----12---------10-----10-----|
B|---17b19--17b19--17b19--17b19vv-----15b17--15b17--15b17------13b15--13b15--|
G|---------------------------------------------------------------------------|
D|---------------------------------------------------------------------------|
A|---------------------------------------------------------------------------|
E|---------------------------------------------------------------------------|


Thats It, Thank Justin!

Email me for questions or comments
Tap to rate this tab
 
# A B C D E F G H I J K L M N O P Q R S T U V W X Y Z