Song name
# A B C D E F G H I J K L M N O P Q R S T U V W X Y Z

Rascal Flatts - Bless The Broken Road Acoustic tab

-----------------------------------------------------------------------------    
                     Bless The Broken Road - Rascal Flatts
-----------------------------------------------------------------------------

Tabbed by: Chris Moses
Email:polk16_chris@hotmail.com


This is the ACOUSTIC version of the song. 
-->>Look up the Bless The Broken Road ACOUSTIC on youtube. 
 Because this is not the tab for the regular version. 
It is in standard tuning and fun to play and it sounds beautiful.

Tuning: Standard


Intro:

e|-0-1--1/3-3--------------------0h1-1-0------0---3----------0---|
B|-------------3p1-0-1-3-1---1-3----------0h1---1---1--------1---|
G|----------------------------------------------------0------0---|
D|------------------------------------------------------0----2---|
A|-----------------------------------------------------------3---|
E|---------------------------------------------------------------|


Verse:

   
   "i set out on a narrow way......"      2x

    C       Fmaj7      G        Am         F         G         C
e|---------------0-----------------------------1----------------------0-|
B|------1----------1------0----------1-----------1-------0--------------|
G|------------2-------------0----------2-----2-------------0--------0---|2x's
D|----2-----3----------------------2-------3----------------------2-----|
A|--3-------------------2--------0---------------------2--------3-------|
E|--------------------3------------------------------3------------------|


  "but i got lost a time or two..."

          Am           G           F       C       Dm        G
e|-------------------------1-----------1----------------1-------|
B|------------1--------------0-----------1----1-----------3-----|
G|----------2---2--------0-----0-----2----------0-----2---------|
D|--------2-------2----0-----------3----------------0-----------|
A|--3-2-0-----------------------------------3-------------------|
E|-------------------3---------------------------------------3--|




  "i couldn't see how every sign pointed straight to you"

    C       Fmaj7      G        Am         F         G          C
e|---------------0-----------------------------1------------------0---3--------0|
B|------1----------1------0----------1-----------1-------0----0h1---1---1------1|
G|------------2-------------0----------2-----2-------------0--------------0----0|
D|----2-----3----------------------2-------3--------------------------------0--2|
A|----------------------2--------0---------------------2-----------------------3|
E|--0-----------------3------------------------------3--------------------------|



Chorus:
  

  C     F         C                G         C               F        Am
  Every long lost dream, led me to where you are, others who broke my heart

                (Dm  C   G)
"they were like northern stars"
   
             Dm  C   G
e|-------------1---0---x|
B|-------------3---1---0|
G|-------0-----2---0---0|
D|---2-3-------0---2---0|
A|-----------------3---2|
E|---------------------3|

  
  C           F     C              G      Am
  Pointing me on my way, into your loving arms




((this part comes right after the word arms))

   "arms,       this much i know is true"


   Am               Dm      C         F    
e|-0-----------------1---------0----------1---1--1/3---|
B|---1-------------3---3---------1------1---1----------|
G|-----2-------0-2-----------0--------2----------------|
D|---------2-3----------------------3------------------|
A|-------------------------3---------------------------|
E|-----------------------------------------------------|


  
 "that god bless the broken road that led me straight to you"

 C       Fmaj7      G        Am         F         G         C
e|---------------0-----------------------------1----------------------0-|
B|------1----------1------0----------1-----------1-------0--------------|
G|------------2-------------0----------2-----2-------------0--------0---|
D|----2-----3----------------------2-------3----------------------2-----|
A|--3-------------------2--------0---------------------2--------3-------|
E|--------------------3------------------------------3------------------|



Repeat Intro

Then Start the verse part of the song only thing different is at the end of
this verse. The part that is different is at the end of this part of tab.

  C       Fmaj7      G        Am         F         G          C
e|---------------0-----------------------------1------------------0------0|
B|------1----------1------0----------1-----------1-------0----0h1---1----1|
G|------------2-------------0----------2-----2-------------0-------------0|
D|----2-----3----------------------2-------3-----------------------------2|
A|----------------------2--------0---------------------2-----------------3|
E|--0-----------------3------------------------------3--------------------|



Repeat the chorus


               F       C             G      Am
  Now I'm just rollin' home, into my lovers arms


  "arms    , this much i know is true"

e|-0------------------1---------0----------1---1-1/3----|
B|---1--------------3---3---------0------1---1----------|
G|-----2-------0--2--------------------2----------------|
D|---------2-3----------------2------3------------------|
A|--------------------------3---------------------------|
E|------------------------------------------------------|


  "that god bless the broken ..."

C       Fmaj7      G        Am         F         G         C
e|---------------0-----------------------------1----------------------0-|
B|------1----------1------0----------1-----------1-------0--------------|
G|------------2-------------0----------2-----2-------------0--------0---|
D|----2-----3----------------------2-------3----------------------2-----|
A|--3-------------------2--------0---------------------2--------3-------|
E|--------------------3------------------------------3------------------|

Tap to rate this tab
# A B C D E F G H I J K L M N O P Q R S T U V W X Y Z