Song name
# A B C D E F G H I J K L M N O P Q R S T U V W X Y Z

Rascal Flatts - Holdin On chords

Listen For The Timing

Intro:
-------|
-------|
---8---|
---8---|
---6---|
-------|

Verse:
-------4-------|
---8---4---8---|
---8---5---8---|
---8---6---8---|
---6---6---6---|
-------4-------| x2

Chorus:
---6---4-------6---|
---6---4---8---6---|
---6---5---8---7---|
---8---6---8---8---|
---8---6---6---8---|
---6---4-------6---| x2

---8---6---4---3---1---|
---8---6---4---3---1---|
---8---7---5---3---1---|
---10--8---6---5---3---|
---10--8---6---5---3---|
---8---6---4---3---1---|

Bridge:
-------6---4---4---|
---8---6---4---4---|
---8---7---5---5---|
---8---8---6---6---|
---6---8---6---6---|
-------6---4---4---|
Tap to rate this tab
# A B C D E F G H I J K L M N O P Q R S T U V W X Y Z