Song name
# A B C D E F G H I J K L M N O P Q R S T U V W X Y Z

Rascal Flatts - Summer Nights tab

****NOTE**********
This Is My First Tab By Ear And i suck at learning things by ear so it probably 
wont be that good xD

i havent figured out the solo yet but when i do ill update this [:




Guitar I

e|------------------------------------------------------------------|
B|---b6-b6---7----9---10---12~---b6--b6---5--4---2~~----------------|
G|------------------------------------------------------------------|
D|------------------------------------------------------------------|
A|------------------------------------------------------------------|
E|------------------------------------------------------------------|


Guitar II (Intro/Verse/Chorus)
e|------------------------------------------------x--x----------------|
B|------------------------------------------------x--x----------------|
G|------------------------------------------------x--x----------------|
D|--7--7--5--(5-5)--5-7--9-(9-9)-9--7--5--5--x-x---5--7-7-(7-7)-------|
A|--5--7--5--(5-5)--5-7--9-(9-9)-9--7--5--5--x-x---5--7-5-(5-5)-------|
E|-----5--3--(3-3)--3-5--7-(7-7)-7--5--3--3--x-x---3--5---------------|


Pre Chorus 


e|------------------------------------------------------------------|
B|------------------------------------------------------------------|
G|------------------------------------------------------------------|
D|----7~~~----------------------------------------------------------|
A|----7~~~----------------------------------------------------------|
E|----5~~~----------------------------------------------------------|


 

B- Bend the string 
~ - let ring
Tap to rate this tab
# A B C D E F G H I J K L M N O P Q R S T U V W X Y Z