Rascal Flatts - He Aint The Leavin Kind tab

----------------------------------------------------------------------------
	          He Aint the Leavin Kind  - Rascal Flatts
Tabbed by: Caleb Farber
Email:

Tuning:Standarad

e|-----12-14-12-16-17-14---------12-14-16-16-12-14-----------------------------|
B|-----------------------------------------------------------------------------|
G|-----------------------------------------------------------------------------|
D|-----------------------------------------------------------------------------|
A|-----------------------------------------------------------------------------|
E|-----------------------------------------------------------------------------|

e|-----14-16-16-12-16-17-14---------12-12--------------------------------------|
B|-----------------------------------------12p11p10p9-------9h10h12------------|
G|-----------------------------------------------------------------------------|
D|-----------------------------------------------------------------------------|
A|-----------------------------------------------------------------------------|
E|-----------------------------------------------------------------------------|

e|-----12-14-14-16-16-12-14---------12-14-12-14-16-14-12-----------------------|
B|-----------------------------------------------------------------------------|
G|-----------------------------------------------------------------------------|
D|-----------------------------------------------------------------------------|
A|-----------------------------------------------------------------------------|
E|-----------------------------------------------------------------------------|

e|-----14-16-16-14-17b---------------------------------------------------------|
B|-----------------------------------------------------------------------------|
G|-----------------------------------------------------------------------------|
D|-----------------------------------------------------------------------------|
A|-----------------------------------------------------------------------------|
E|-----------------------------------------------------------------------------|

e|-----------------------------------------------------------------------------|
B|-----------------------------------------------------------------------------|
G|-------------------------------------11b----------11br-11-9-5-7-7b-----------|
D|-----------------------------------------------------------------------------|
A|-----------------------------------------------------------------------------|
E|-----17/---------------------------------------------------------------------|

e|-----------------------------------------------------------------------------|
B|-------12b-12b-10-12-12--------------------8b-8b----8b-8b-8br-6--------------|
G|---------------------------------------------------------------8--8b-9-------|
D|-----------------------------------------------------------------------9-----|
A|-----------------------------------------------------------------------------|
E|-----------------------------------------------------------------------------|

e|-----------------------------------------------------------------------------|
B|---------------10h12-12------------------------------------------------------|
G|---------10h12---------------------------------------------------------------|
D|-----------------------------------------------------------------------------|
A|-----------------------------------------------------------------------------|
E|-----------------------------------------------------------------------------|


************************************

| /   slide down
| h   hammer-on
| p   pull-off
| ~   vibrato
| +   harmonic
| x   Mute note
| b   Bend
| pb  Pre-bend
| br  Bend release
| pbr Pre-bend release
| brb Bend release bend

************************************
Tap to rate this tab
 
# A B C D E F G H I J K L M N O P Q R S T U V W X Y Z