Rascal Flatts - Bless The Broken Road tab

BLESS THE BROKEN ROAD BY RASCAL FLATTS
MANDOLIN TAB
TABBED BY JACK

Intro/In-between 1st Chorus and 2nd Verse

===============================
E|--0-1-3-------------1-1-0----|
A|0-------3-2-3-5-7---------3--|
D|-----------------------------|
G|-----------------------------|

Verse 2
=============================================================================
E|5-5-5-5-5-5-5-5-5-5-5-5-5-5-5-5-3-3-3-3-3-3-3-3-3-3-3-3-3-3-3-3-1-1-1-1-1-1-|
A|----------------------------------------------------------------------------|
D|----------------------------------------------------------------------------|
G|----------------------------------------------------------------------------|

=======================================================
E|1-1-1-1-1-1-1-1-1-1-3-3-3-3-3-3-3-3-3-3-3-3-3-3-3-3--|
A|-----------------------------------------------------|
D|-----------------------------------------------------|
G|-----------------------------------------------------|

Outro

===============================
E|--0-1-3-------------1-1-0-0--|
A|0-------5-3-2-3-5-7-------3--|
D|--------------------------2--|
G|--------------------------0--|

This is a very popular song that people ask for mandolin tabs for, so I took the liberty
of listening very closely to the mandolin in the song and making a tab by ear. I think
it sounds about right. Then again itís my first tab for any song on any instrument, so I 
could be wrong. I didnít do the rhythms out, but theyíre pretty simple to pick out if you
just listen to the mandolin in the song. Let me know how I did!
Tap to rate this tab
 
# A B C D E F G H I J K L M N O P Q R S T U V W X Y Z