Rascal Flatts - Stand tab

Stand
Rascal Flatts
Me & my gang

Any questions please email me at njlmvp@gmail.com

    Chords used:
  F   Am    G    C    A
|-1-||-0-||-3-||-0-||-0-|
|-1-||-1-||-3-||-1-||-2-|
|-2-||-2-||-0-||-0-||-2-|
|-3-||-2-||-0-||-2-||-2-|
|-3-||-0-||-2-||-3-||-0-|
|-1-||-x-||-3-||-0-||-x-|

Intro Chords: F Am G x2
    Intro/Verse           After a while it changes up a little...
|--------------------|   |---------------------------------------|
|-------------3------|   |-------------6p5-----------------------|
|-----------5--------|   |-------------------5p2-----------------|
|---------5----------|   |---------------------------------------|
|--------------------|   |---------------------------------------|
|--------------------|   |---------------------------------------|

verse chords: same as intro except replace Am with A last line (but you'll be alright 
you'll be all right) which is Dm and F

Chorus: Am F C G x3
        F Am G
        Am F C G x2

Bridge: F D x1

(SOLO)

|--------------------------------------------|
|--------------------13-13-15-15/17-15-13----|
|-9/14~-14\12/14~14--------------------------|
|--------------------------------------------|
|--------------------------------------------|
|--------------------------------------------|

|-------------------------------------------17---|
|-----------13--------------------17-20-20b------|
|-12/14-14~---14-14~-17-17-19-19b----------------|
|------------------------------------------------|
|------------------------------------------------|
|------------------------------------------------|
Tap to rate this tab
 
# A B C D E F G H I J K L M N O P Q R S T U V W X Y Z