Song name
# A B C D E F G H I J K L M N O P Q R S T U V W X Y Z

Rascal Flatts - Im Movin On tab

Im movin on intro by rascal flatts
tabbed by:johnramsey
capo 5

|---2-----------------|
|-------5---3---------|
|---------------------|  4x
|---0-----------------|
|---------------------|
|---------------------|

    then

|---------------------|
|---------------------|
|-0--4----0--7--------|
|-0-------0-----------|
|---------------------|
|---------------------|

and its something like that through most of the song!
PLEASE Rate! Thanks!
Tap to rate this tab
 
# A B C D E F G H I J K L M N O P Q R S T U V W X Y Z