Song name
# A B C D E F G H I J K L M N O P Q R S T U V W X Y Z

Rascal Flatts - Help Me Remember tab

-------------------------------------------------------------------------------
			     Help Me Remember 
                              Rascal Flatts
-------------------------------------------------------------------------------

Played this along with the song, think it's exact.

Tuning: standard

   F#m           Esus4         D6add9
e|--------------------------------------0-----------------------------|
B|--------0-------------0------------0--------0-----------------------|
G|-----2-------------2------------2--------2--------------------------|
D|--4-------------2------------0--------------------------------------|
A|--------------------------------------------------------------------|
E|-(2)-----------(0)--------------------------------------------------|
Tap to rate this tab
 
# A B C D E F G H I J K L M N O P Q R S T U V W X Y Z