Guitaretab - guitar tabs
Song name
# A B C D E F G H I J K L M N O P Q R S T U V W X Y Z

Rascal Flatts - Life Is A Highway chords

Highlighted       Show chord diagrams
Life Is A Highway by Rascal Flatts
Standard Tuning 

Intro:

e|--13-----------------------------------------------------------------------|
B|--10-----------------------------------------------------------------------|
G|--10-----------------------------------------------------------------------|
D|---------------------------------------------------------------------------|
A|---------------------------------------------------------------------------|
E|---------------------------------------------------------------------------|

A - C - Bb
Bb - A - F
Bb - A - C
Bb - A - C

A - C - Bb
Bb - A - F
Bb - A - C
Bb - A - C

Lick:
e|---------------------10--8--6--8--5----------------------------------------|
B|----6--8--8b10b8--6--------------------------------------------------------|
G|--5------------------------------------------------------------------------|
D|---------------------------------------------------------------------------|
A|---------------------------------------------------------------------------|
E|---------------------------------------------------------------------------|


Verse:

Bb - F - C - C
Bb - F - C - C

"I won't hesitate.."
D - C - Bb - G

Chorus:

A - C - Bb
Bb - A - F
Bb - A - C
Bb - A - C

A - C - Bb
Bb - A - F
Bb - A - C
Bb - A - C

REPEAT VERSE
REPEAT CHORUS x2

Bridge 1:
A - Bb - D - C
A - Bb - D - C
[ Tab from: http://www.guitaretab.com/r/rascal-flatts/353068.html ]
Guitar Solo:
A - C - Bb
Bb - A - F
Bb - A - C
Bb - A - C
A - C - Bb
Bb - A - F
Bb - A - C
Bb - A - C

Bridge 2:
A - C - Bb - G - G

REPEAT 1st SET OF CHORUS (ACCAPELLA)

REPEAT CHORUS

LYRICS:

Life's like a road that you travel on
There's one day here and the next day gone
Sometimes you bend, sometimes you stand
Sometimes you turn your back to the wind

There's a world outside every darkened door
Where blues won't haunt you anymore
For the brave are free and lovers soar
Come ride with me to the distant shore

We won't hesitate
To break down the garden gate
There's not much time left today, yeah

Life is a highway, I wanna ride it
All night long
If you're going my way, I wanna drive it
All night long

Through all these cities and all these towns
It's in my blood and it's all around
I love you now like I loved you then
This is the road and these are the hands
From Mozambique to those Memphis nights
The Khyber Pass to Vancouver's lights
They knock me down and back up again
You're in my blood, I'm not a lonely man

There's no load I can't hold
The road's so rough this I know
I'll be there when the light comes in
Just tell 'em we're survivors

Life is a highway, I wanna ride it
All night long
If your going my way, I wanna drive it

Gimme, Gimme, Gimme, Gimme, yeah

Life is a highway, I wanna ride it
All night long (mmmm yeah)
If your going my way, I wanna drive it
All night long

There was a distance between you and I
(between you and I)
A misunderstanding once
But now, we look it in the eye

Ooooo...Yeah gimme some mowah!

There ain't no load that I can't hold
The road's so rough this I know
I'll be there when the light comes in
Just tell 'em we're survivors

Life is a highway, I wanna ride it
All night long (all night long, yeah hey)
If your going my way, I wanna drive it
All night long

Life is a highway, I wanna ride it
All night long
If your going my way, I wanna drive it
All night long

Life is a highway, I wanna ride it
All night long
If your going my way, I wanna drive it
All night long

Gimme, Gimme, Gimme, Gimme some more, yeah

..

Just Listen to the Song for timing and strumming patterns :)
Related for Life Is A Highway chords
Life Is A Highway chords by Rascal Flatts