Song name
# A B C D E F G H I J K L M N O P Q R S T U V W X Y Z

Rascal Flatts - My Wish tab

-------------------------------------------------------------------------------
                             My Wish (Solo) - Rascal Flatts
-------------------------------------------------------------------------------
I saw that there were only chord sheets for this song, so I figured I'd put this up. 
Apologies if it isn't perfect.

This solo plays right after the second chorus.

e|---------------------------------------------------------------------------|
B|------9-9b10br9-9------------------9-9b10br9-9-----------------------------|
G|-9h11-------------11-11-9-9--9h11--------------11-11-9-9-------------------|
D|---------------------------------------------------------------------------|
A|---------------------------------------------------------------------------|
E|---------------------------------------------------------------------------|

e|----------------------------------------9h10p9---------------12------------|
B|-9b10br9-9-------------------------------------10-----12b14-----14br12-----|
G|-----------11-11-11-11-9-9-9-11b13-11-------------9------------------------|
D|---------------------------------------------------------------------------|
A|---------------------------------------------------------------------------|
E|---------------------------------------------------------------------------|

e|----------------14-14-----14-14--------------------------------------------|
B|-9-12/14-14b16--------16---------16br14-12---------------------------------|
G|---------------------------------------------------------------------------|
D|---------------------------------------------------------------------------|
A|---------------------------------------------------------------------------|
E|---------------------------------------------------------------------------|

Fill over final chorus with E major/C# minor pentatonic

Outro Solo (play until fade out)

e|-16-12----14----------17----16-----12h14-12----12--------------------------|
B|-------12----12-(x4)-----12----12-----------14-----------------------------|
G|---------------------------------------------------------------------------|
D|---------------------------------------------------------------------------|
A|---------------------------------------------------------------------------|
E|---------------------------------------------------------------------------|

************************************

| /   slide up
| \   slide down
| h   hammer-on
| p   pull-off
| ~   vibrato
| +   harmonic
| x   Mute note
| b   Bend
| pb  Pre-bend
| br  Bend release
| pbr Pre-bend release
| brb Bend release bend

************************************
Tap to rate this tab
 
# A B C D E F G H I J K L M N O P Q R S T U V W X Y Z