Song name
# A B C D E F G H I J K L M N O P Q R S T U V W X Y Z

Rascal Flatts - A Little Home tab

-------------------------------------------------------------------------------
                             A Little Home - Rascal Flatts
-------------------------------------------------------------------------------
Tabbed by: Andreas Hejndorf

Tuning: EADGBe
Capo 4th fret

This is not exactly what is played in the song, but it sounds very nice. Please note,
that the Guitar II tabs are relative to the capo, while the Guitar I tabs are not. This
is because, you don't necessarily have to use a capo on guitar I.(If you strum on the
chorus, you should, though)

Intro:

Guitar I:
e|-------16-16-14-14---14-12-11----------------------------------------------|
B|-14/16------------------------14---14-16-12-14---14/16---------------------|
G|-------------------------------------------------------15-16---------------|
D|---------------------------------------------------------------------------|
A|---------------------------------------------------------------------------|
E|---------------------------------------------------------------------------|

e|-------16-16-14-14---14-12-11----------------------------------------------|
B|-14/16------------------------14---14-16-12-14---14\-----------------------|
G|---------------------------------------------------------------------------|
D|---------------------------------------------------------------------------|
A|---------------------------------------------------------------------------|
E|---------------------------------------------------------------------------|

Guitar II:
   Cadd9         G             D             Em
e|-----3---3---3-----3---3---3-----2---2---2-----0---0---0-------------------|
B|-----3---3---3-----3---3---3-----3---3---3-----0---0---0-------------------|
G|-----------0-------------0-----2-------2-----0-------0---------------------|
D|---2-------------------------0---------------------------------------------|
A|-3---------------2---------------------------------------------------------|
E|---------------3---------------------------0-------------------------------|
   Cadd9         G             D         Dsus4 D
e|-----3---3---3-----3---3---3-----2---2---3---2---2h3-----------------------|
B|-----3---3---3-----3---3---3-----3---3---3---3---3-------------------------|
G|-----------0-------------0-----2-------2---2---2---------------------------|
D|---2-------------------------0---------------------------------------------|
A|-3---------------2---------------------------------------------------------|
E|---------------3-----------------------------------------------------------|

Guitar II continues the the same as the intro, while guitar I has some little fills:

"...studying for her midterm"
e|---------------------------------------------------------------------------|
B|-14/16-14-12-11------------------------------------------------------------|
G|----------------13-11------------------------------------------------------|
D|---------------------------------------------------------------------------|
A|---------------------------------------------------------------------------|
E|---------------------------------------------------------------------------|

"...one of those weeks"
e|---------------------------------------------------------------------------|
B|-14/16\14\12---------------------------------------------------------------|
G|---------------------------------------------------------------------------|
D|---------------------------------------------------------------------------|
A|---------------------------------------------------------------------------|
E|---------------------------------------------------------------------------|

"...it seems is against her"
e|---------------------------------------------------------------------------|
B|-14/16-14-12-11\9-7--------------------------------------------------------|
G|---------------------------------------------------------------------------|
D|---------------------------------------------------------------------------|
A|---------------------------------------------------------------------------|
E|---------------------------------------------------------------------------|

Pre-chorus:
   Cadd9         G             D         Dsus4 D
e|-----3---3---3-----3---3---3-----2---2---3---2---2h3-----------------------|
B|-----3---3---3-----3---3---3-----3---3---3---3---3-------------------------|
G|-----------0-------------0-----2-------2---2---2---------------------------|x2
D|---2-------------------------0---------------------------------------------|
A|-3---------------2---------------------------------------------------------|
E|---------------3-----------------------------------------------------------|


Chorus:
Guitar I + II

Eventually play the Guitar II intro part here - or you can just find a strum pattern you 
like :)

Cadd9              G                 D - Dsus4 - D
Sometimes you just need a little home
Cadd9             G                   D - Dsus4 - D
Some "hey mum and dad what's going on?
Cadd9             G      D                     Em - D
I'm just checkin' in, no there ain't nothing wrong"
     Cadd9          D
Sometimes, you just need a little home.

So, this is all you'll need. Listen to the song to find out which order and how many 
times you have to play each part.

Feel free to comment, if you have any corrections :)
Tap to rate this tab
# A B C D E F G H I J K L M N O P Q R S T U V W X Y Z