Song name
# A B C D E F G H I J K L M N O P Q R S T U V W X Y Z

Rascal Flatts - What Hurts The Most tab

Rascal Flatts- What Hurts The Most (Guitar Solo)

/ - slide
b - bend
h - hammer on
p - pull off

|----------------------------------------------------|
|-----------11-11b13-------11------------------------|
|--10-12-13-------------------13-13---12-12---10-10--|
|----------------------------------------------------|
|----------------------------------------------------|
|----------------------------------------------------|

|------------------------------11-11-11-11/13--13-13-13--15--16-16------|
|------------11-11h13----13-13------------------------------------------|
|--/10-12-13------------------------------------------------------------|
|-----------------------------------------------------------------------|
|-----------------------------------------------------------------------|
|-----------------------------------------------------------------------|


|--13--------------------------------------------|
|-----16p13--------------------------------------|
|------------15-13----13-------------------------|
|------------------15----15p13-----13h15---------|
|-------------------------------15---------------|
|------------------------------------------------|
Tap to rate this tab
# A B C D E F G H I J K L M N O P Q R S T U V W X Y Z