Song name
# A B C D E F G H I J K L M N O P Q R S T U V W X Y Z

Rascal Flatts - These Days tab

Tabbed & Arranged by: Josh Daley

Tuning: E A D G B E (Standard)



Intro & Verse:

  Guitar 1:
  ----------------------------------------------------|
  -----------------0-----------------------0----------|
  --------0--2--------2--0--------0--2--------2--0----|
  -----0-------(0)-------------0-------(0)------------|
  ----------------------------------------------------|
  --3-----------------------2-------------------------|

  ----------------------------------------------------|
  -----------------0-----------------------0----------|
  --------0--2--------2--0--------0--2--------2--0----|
  -----0-------(0)------------2--------(0)------------|
  --------------------------3-------------------------|
  --0-------------------------------------------------|


  Guitar 2:

  --3----3----3----3----|
  --3----3----3----3----|
  --0----2----0----0----|
  --0----0----2----2----|
  --2----x----2----3----|
  --3----2----0---------|



Pre-chorus:

  Guitar 1:

  --------------------3------------------------------0----0-----------|
  -----------0^1---1---------------1-----------3-------------3--------|
  --------2-----2---------------0-----------0-----0-------------0-----|
  -----2---------------------0-----------2-------------------------0--|
  --0---------------------2-----------3-------------------------------|
  --------------------------------------------------------------------|

  ----------------------------------------------------|
  -----------------0-----------------------0----------|
  --------0--2--------2--0--------0--2--------2--0----|
  -----0-------(0)-------------0-------(0)------------|
  ----------------------------------------------------|
  --3-----------------------2-------------------------|

  ----------------------------------------------------|
  -----------------0-----------------------0----------|
  --------0--2--------2--0--------0--2--------2--0----|
  -----0-------(0)------------2--------(0)------------|
  --------------------------3-------------------------|
  --0-------------------------------------------------|

  --------------------3------------------------------0----0-----------|
  -----------0^1---1---------------1-----------3-------------3--------|
  --------2-----2---------------0-----------0-----0-------------0-----|
  -----2---------------------0-----------2-------------------------0--|
  --0---------------------2-----------3-------------------------------|
  --------------------------------------------------------------------|


  Guitar 2:

  --0---------0------|
  --1------0--3------|
  --2------0--0------|
  --2------x--2------|
  --0------2--3------|
  -------------------|

  --3----3----3----3----|
  --3----3----3----3----|
  --0----2----0----0----|
  --0----0----2----2----|
  --2----x----2----3----|
  --3----2----0---------|

  --0---------0------|
  --1------0--3------|
  --2------0--0------|
  --2------x--2------|
  --0------2--3------|
  -------------------|



Chorus:

  Guitar 1 & 2:

  --2----0----0----2----0----0----0----2----|
  --3----3----3----3----3----3----3----3----|
  --2----0----0----2----0----0----0----2----|
  --0----2----x----0----2----2----2----0----|
  -------3----2---------3----2----3---------|
  ------------------------------------------|

  --2----0----0----2----0----0----0----2----|
  --3----3----3----3----3----3----3----3----|
  --2----0----0----2----0----0----0----2----|
  --0----2----x----0----2----2----2----0----|
  -------3----2---------3----2----3---------|
  ------------------------------------------|

  --0----0----0--------|
  --3----3----1--------|
  --0----0----0--------| ~ Play intro x2 ~
  --2----x----2--------|
  --3----2----0--------|
  ---------------------|
Tap to rate this tab
 
# A B C D E F G H I J K L M N O P Q R S T U V W X Y Z