Song name
# A B C D E F G H I J K L M N O P Q R S T U V W X Y Z

Rascal Flatts - Changed tab

hey guys ,I didn't see any solos for this song on here ,so I decided to go ahead 
and post one.  Hope you like it.


 e|-13-13-11\7---------------------13-15-16-16-15-12-15-17-18|
 B|------------14-12-----------------------------------------|
 G|------------------12\9------------------------------------|
 D|------------------------16-18-----------------------------|
 A|----------------------------------------------------------|
 E|----------------------------------------------------------|



 e|-13-15-14-13----11----9----7------------------------------|
 B|-------------15----13---11---9----------------------------|
 G|----------------------------------------------------------|
 D|----------------------------------------------------------|
 A|----------------------------------------------------------|
 E|----------------------------------------------------------|
Tap to rate this tab
 
# A B C D E F G H I J K L M N O P Q R S T U V W X Y Z