Song name
# A B C D E F G H I J K L M N O P Q R S T U V W X Y Z

Rascal Flatts - I Melt tab

e------------------------------|
B-----7-10-----7-7---9/10-9----|
G-7-9------7h9--7-9---------9--|
D------------------------------|
A------------------------------|
E------------------------------|

e-------------------12-11-------|
B-----7-10--7h10-12-------12----|
G-7-9------------------------11-|
D-------------------------------|
A-------------------------------|
E-------------------------------|

e-------------|
B-------------|
G-------------|
D-14\13-------|
A-------14----|
E----------14-|
Tap to rate this tab
# A B C D E F G H I J K L M N O P Q R S T U V W X Y Z