Song name
# A B C D E F G H I J K L M N O P Q R S T U V W X Y Z

Rascals - Is It Too Late tab

-------------------------------------------------------------------------------
			     IS IT TOO LATE? - The Rascals
-------------------------------------------------------------------------------
Tabbed by: Danny Edwards
Email: danny_edwards@hotmail.co.uk

Tuning: Standard

e|-------------------------------------|
B|-------------------------------------|
G|-9------10----9----7-10-9----7-10-9--|
D|-9------10----9----7-10-9----7-10-9--|
A|-7------8-----7----5-8--7----5-8--7--|
E|-------------------------------------|

VERSE
e|---------------------------------------|
B|---------------------------------------|
G|-x-xxx-xxx-xxx-xxx-xxx-x-7-7-7---------|
D|-x-xxx-xxx-xxx-xxx-xxx-x-7-7-7---------|
A|-x-xxx-xxx-xxx-xxx-xxx-x-5-5-5---------|
E|-x-xxx-xxx-xxx-xxx-xxx-x---------------|
these palm mutes are very fast

e|---------------------------------------------------------------------------|
B|---------------------------------------------------------------------------|
G|-9-------------------------------------------------------------------------|
D|-9-------------------------------------------------------------------------|
A|-7-strummed up and down as many times as it does then back onto the verse bit|
E|---------------------------------------------------------------------------|

CHORUS
e|-------------------------------------------------|
B|-------------------------------------------------|
G|-7-7-------------------7-7-----9--7-10-9---7-10--|
D|-7-7--7-x-7-7-x-7-7-xx-7-7-----9--7-10-9---7-10--|
A|-5-5--7-x-7-7-x-7-7-xx-5-5-----7--5-8--7---5-8---|
E|------5-x-5-5-x-5-5-xx------x2-------------------|

then back to the verse

BRIDGE
e|--------------------------------------------------------------------------|
B|--------------------------------------------------------------------------|
G|-5-x-5-5-x-5-5-x-5-5-x--9-x-9-9-x-9-9-x-9-9-x-------------------7-7-7-----|
D|-5-x-5-5-x-5-5-x-5-5-x--9-x-9-9-x-9-9-x-9-9-x-7-x-7-7-x-7-7-x-x-7-7-7-----|
A|-3-x-3-3-x-3-3-x-3-3-x--7-x-7-7-x-7-7-x-7-7-x-7-x-7-7-x-7-7-x-x-5-5-5-----|
E|----------------------------------------------5-x-5-5-x-5-5-x-x-----------|

e|----------------------------|
B|----------------------------|
G|----------------------------|
D|-7-x-7-7-x-7-7-x-7-7-x------|
A|-7-x-7-7-x-7-7-x-7-7-x------|
E|-5-x-5-5-x-5-5-x-5-5-x---x2-|

CHORUS
e|------------------------------------------------------------|
B|------------------------------------------------------------|
G|-7-7-------------------7-7-7-7-7-7-7-7-7-7-7-7-7/9-9-9-9----|
D|-7-7-7-x-7-7-x-x-7-7-x-7-7-7-7-7-7-7-7-7-7-7-7-7/9-9-9-9-7--|
A|-5-5-7-x-7-7-x-x-7-7-x-5-5-5-5-5-5-5-5-5-5-5-5-5/7-7-7-7-7--|
E|-----5-x-5-5-x-x-5-5-x-----------------------------------5--|

e|-------------------------------------|
B|-------------------------------------|
G|7-7-7-7-7-7-7-7-7-7-7-7-7/9-9-9-9----|
D|7-7-7-7-7-7-7-7-7-7-7-7-7/9-9-9-9-7--|
A|5-5-5-5-5-5-5-5-5-5-5-5-5/7-7-7-7-7--|
E|----------------------------------5--|

SOLO
e|---------------------------------------------------------------------------|
B|---------------------------------------------------------------------------|
G|---------------------------------9--------------9-9--7-----7---------------|
D|-7~-x4-9b-7~-x4-9b---9--12--9-12--------------------------9----------------|
A|---------------------------------------------------------------------------|
E|---------------------------------------------------------------------------|

OUTRO
e|--------------------------------------------|
B|--------------------------------------------|
G|-7-7-7/9-9-9-9--9-9-9---7-7-7/9-9-9-9-------|
D|-7-7-7/9-9-9-9--9-9-9---7-7-7/9-9-9-9--7----|
A|-5-5-5/7-7-7-7--7-7-7---5-5-5/7-7-7-7--7----|
E|---------------------------------------5----|
   Many sleepless nights many sleepless nights

try and vibrato as much of this as you can if you dont use any effects to get the sounds 
gets.
the solo uses mostly them notes, just figure out the order


| /  slide up
| \  slide down
| h  hammer-on
| p  pull-off
| ~  vibrato
| +  harmonic
| x  Mute note
===============================================================================
Tap to rate this tab
 
# A B C D E F G H I J K L M N O P Q R S T U V W X Y Z