Song name
# A B C D E F G H I J K L M N O P Q R S T U V W X Y Z

Rascals - Bond Girl Acoustic chords

Highlighted       Show chord diagrams
Standard tuning

Intro+Verse

  Cm    C#    Bbm    Cm
E--8-----9-----6------8----|
B--8-----9-----6------8----|
G--8-----10----6------8----|
D--10----11----8------10---|
A--10----11----8------10---|
E--8-----9-----6------8----|

Cm  C# Bbm Cm
Woh-Oh-Oh-ho  x4

Cm           C#     Bbm    Cm
Sweating out another tantrum
Read the book of poetry
Words believed in the anthology
You all need to calm down

Chorus

   Cm    Eb    Cm     D    Cm
E--8------6----8------5-----8--|
B--8------8----8------7-----8--|
G--8------8----8------7-----8--|
D--10-----8----10-----7-----10-|
A--10-----6----10-----5-----10-|
E--8------x----8------x-----8--|

Cm        Eb              Cm      D       Cm
Yes I can see it that you want to be with me
I can see it that you want to be with

Bridge  x2

   G   F   C#  Eb  C   Eb
E--3---1---4---6---3---6---|
B--3---1---6---8---5---8---|
G--4---2---6---8---5---8---|
D--5---3---6---8---5---8---|
A--5---3---4---6---3---6---|
E--3---1---x---x---x---x---|

Verse2
Cm                C#   Bbm   Cm
Against the world and society
Girls that make you go weak at the knees
The fun starts on the balcony
The perfect girl from the bond film

Chorus2
Cm        Eb              Cm      D       Cm
Yes I can see it that you want to be with me
I can see it that you want to be with me

Ooh-Oh-ho-oh x4

Cm        Eb              Cm      D       Cm
Yes I can see it that you want to be with me
I can see it that you want to be with me
I'm indecisive but you keep looking at me

Bridge x4

End

(Mix version of the album and acoustic version played by Miles Kane)

Enjoy!
Tap to rate this tab
# A B C D E F G H I J K L M N O P Q R S T U V W X Y Z