Song name
# A B C D E F G H I J K L M N O P Q R S T U V W X Y Z

Rashamba - Distances tab

Rashamba - Расстояния (Distances)
Tuning: Standard
(h) - harmonics
(b) - semitone bend

Main Riff:
Both guitars:
---------------------------------------------------------------------------------------|
---------------------------------------------------------------------------------------|
---------------------------------------------------------------------------------------|
-----------------------------------------------------------------12-12-12--------------|
-------14-12-14-14-----------------15-14-15-15-------14-12-10-9--10-10-10--10-9--------|
-0-0-0-------------0-0-0-0-0-0-0-0-------------0-0-0-------------8--8--8--------10-12--|

----------------------------------------------------------------------------------------------|
----------------------------------------------------------------------------------------------|
----------------------------------------------------------------------------------------------|
-----------------------------------------------------------------12-12-12---------------------|
-------14-12-14-14-----------------15-14-15-15-------14-12-10-9--10-10-10--10-----9(h)(b)(b)--|
-0-0-0-------------0-0-0-0-0-0-0-0-------------0-0-0-------------8--8--8------10--------------|

Verse:
first guitar:
---------------------------------------------------------------------------------------|
---------------------------------------------------------------------------------------|
---------------------------------------------------------------------------------------|
-----------------------------------------------------------------12-12-12--------------|
-------14-12-14-14-----------------15-14-15-15-------14-12-10-9--10-10-10--10-9--------|
-0-0-0-------------0-0-0-0-0-0-0-0-------------0-0-0-------------8--8--8--------10-12--|

----------------------------------------------------------------------------------------------------|
----------------------------------------------------------------------------------------------------|
----------------------------------------------------------------------------------------------------|
-----------------------------------------------------------------12-12-12---------------------------|
-------14-12-14-14-----------------15-14-15-15-------14-12-10-9--10-10-10--10-----9(h)(b)(b)--------|
-0-0-0-------------0-0-0-0-0-0-0-0-------------0-0-0-------------8--8--8------10--------------------|


second guitar:
---------------------------------------------------------------------------------------|
---------------------------------------------------------------------------------------|
---------------------------------------------------------------------------------------|
-----------------------------------------------------------------12-12-12--------------|
-------10-9-10-10-----------------12-10-12-12--------10-9-10-9---10-10-10--10-9--------|
-0-0-0-------------0-0-0-0-0-0-0-0-------------0-0-0-------------8--8--8--------10-12--|

----------------------------------------------------------------------------------------------------|
----------------------------------------------------------------------------------------------------|
----------------------------------------------------------------------------------------------------|
-----------------------------------------------------------------12-12-12---------------------------|
-------10-9-10-10-----------------12-10-12-12--------10-9-10-9---10-10-10--10----9(h)(b)(b)---------|
-0-0-0-------------0-0-0-0-0-0-0-0-------------0-0-0-------------8--8--8------10--------------------|

bridge:
----------------------------------------------------------------------------------------------------|
----------------------------------------------------------------------------------------------------|
----------------------------------------------------------------------------------------------------|
----------------------------------------------------------------------------------------------------|
--8-7---5-7---5-7-----------------------------------------------------------------------------------|
-----0-----0-----0-0-6-5-0--0-0-3-5-5-5-5-3-3-3-----------------------------------------------------|
(x4)


----------------------------------------------------------------------------------------------------|
----------------------------------------------------------------------------------------------------|
----------------------------------------------------------------------------------------------------|
---------------------------------------------8-8-8--------------------------------------------------|
---------------------------------------------7-7-7--------------------------------------------------|
-000000-0000-000000-0000-000000-0000-000000---------000000-0000-000000-0000-000000-0000-000000-000--|

Main Riff:
first guitar:
----------------------------------------------------------------------------------------------------|
----------------------------------------------------------------------------------------------------|
----------------------------------------------------------------------------------------------------|
-----------------------------------------------------------------12-12-12---------------------------|
-------14-12-14-14-----------------15-14-15-15-------14-12-10-9--10-10-10--10-9---------------------|
-0-0-0-------------0-0-0-0-0-0-0-0-------------0-0-0-------------8--8--8--------10-12---------------|

----------------------------------------------------------------------------------------------------|
----------------------------------------------------------------------------------------------------|
----------------------------------------------------------------------------------------------------|
-----------------------------------------------------------------12-12-12---------------------------|
-------14-12-14-14-----------------15-14-15-15-------14-12-10-9--10-10-10--10-----9(h)(b)(b)--------|
-0-0-0-------------0-0-0-0-0-0-0-0-------------0-0-0-------------8--8--8------10--------------------|


second guitar:
----------------------------------------------------------------------------------------------------|
----------------------------------------------------------------------------------------------------|
----------------------------------------------------------------------------------------------------|
-----------------------------------------------------------------12-12-12---------------------------|
-------10-9-10-10-----------------12-10-12-12--------10-9-10-9---10-10-10--10-9---------------------|
-0-0-0-------------0-0-0-0-0-0-0-0-------------0-0-0-------------8--8--8--------10-12---------------|

----------------------------------------------------------------------------------------------------|
----------------------------------------------------------------------------------------------------|
----------------------------------------------------------------------------------------------------|
-------------------------------------------------------------12-12-12-------------------------------|
-------10-9-10-10-----------------12-10-12-12--------10-9-10-9---10-10-10--10----9(h)(b)(b)---------|
-0-0-0-------------0-0-0-0-0-0-0-0-------------0-0-0-------------8--8--8------10--------------------|

chorus:
first guitar:
------------------------------------------------------------------|
------------------------------------------------------------------|
------------------------------------------------------------------|
---------------77-77777-777-------5555-4444------7-7-7-7-9-9-9-9--|
-55-55555-555--55-55555-555----------------5555--3-3-3-3-5-5-5-5--|
-33-33333-333----------------0000---------------------------------|
(x2)

second guitar:
----------------------------------------------------------------------------------------------------|
----------------------------------------------------------------------------------------------------|
-----------------------------------7-5-4-5----------------------------------------------------------|
----7-5-45---7-5-45------9-7-5-4-0--0-0------------------------7777-9999----------------------------|
-----------------------55-5-5-5-----------------7777-5555-2222-3333-5555----------------------------|
--33-3-3---33-3-3--------------------------0000-----------------------------------------------------|
(x2)

bridge:
----------------------------------------------------------------------------------------------------|
----------------------------------------------------------------------------------------------------|
----------------------------------------------------------------------------------------------------|
----------------------------------------------------------------------------------------------------|
--8-7---5-7---5-7-----------------------------------------------------------------------------------|
-----0-----0-----0-0-6-5-0--0-0-3-5-5-5-5-3-3-3-----------------------------------------------------|
(x4)


----------------------------------------------------------------------------------------------------|
----------------------------------------------------------------------------------------------------|
----------------------------------------------------------------------------------------------------|
---------------------------------------------8-8-8--------------------------------------------------|
---------------------------------------------7-7-7--------------------------------------------------|
-000000-0000-000000-0000-000000-0000-000000---------000000-0000-000000-0000-000000-0000-000000-000--|

Main Riff:
first guitar:
----------------------------------------------------------------------------------------------------|
----------------------------------------------------------------------------------------------------|
----------------------------------------------------------------------------------------------------|
-----------------------------------------------------------------12-12-12---------------------------|
-------14-12-14-14-----------------15-14-15-15-------14-12-10-9--10-10-10--10-9---------------------|
-0-0-0-------------0-0-0-0-0-0-0-0-------------0-0-0-------------8--8--8--------10-12---------------|

----------------------------------------------------------------------------------------------------|
----------------------------------------------------------------------------------------------------|
----------------------------------------------------------------------------------------------------|
-----------------------------------------------------------------12-12-12---------------------------|
-------14-12-14-14-----------------15-14-15-15-------14-12-10-9--10-10-10--10-----9(h)(b)(b)--------|
-0-0-0-------------0-0-0-0-0-0-0-0-------------0-0-0-------------8--8--8------10--------------------|


second guitar:
----------------------------------------------------------------------------------------------------|
----------------------------------------------------------------------------------------------------|
----------------------------------------------------------------------------------------------------|
-------------------------------------------------------------12-12-12-------------------------------|
-------10-9-10-10-----------------12-10-12-12--------10-9-10-9---10-10-10--10-9---------------------|
-0-0-0-------------0-0-0-0-0-0-0-0-------------0-0-0-------------8--8--8--------10-12---------------|

----------------------------------------------------------------------------------------------------|
----------------------------------------------------------------------------------------------------|
----------------------------------------------------------------------------------------------------|
-------------------------------------------------------------12-12-12-------------------------------|
-------10-9-10-10-----------------12-10-12-12--------10-9-10-9---10-10-10--10----9(h)(b)(b)---------|
-0-0-0-------------0-0-0-0-0-0-0-0-------------0-0-0-------------8--8--8------10--------------------|

chorus:
first guitar:
----------------------------------------------------------------------------------------------------|
----------------------------------------------------------------------------------------------------|
----------------------------------------------------------------------------------------------------|
---------------77-77777-777-------5555-4444------7-7-7-7-9-9-9-9------------------------------------|
-55-55555-555--55-55555-555----------------5555--3-3-3-3-5-5-5-5------------------------------------|
-33-33333-333----------------0000-------------------------------------------------------------------|
(x2)

second guitar:
----------------------------------------------------------------------------------------------------|
----------------------------------------------------------------------------------------------------|
-----------------------------------7-5-4-5----------------------------------------------------------|
----7-5-45---7-5-45------9-7-5-4-0--0-0------------------------7777-9999----------------------------|
-----------------------55-5-5-5-----------------7777-5555-2222-3333-5555----------------------------|
--33-3-3---33-3-3--------------------------0000-----------------------------------------------------|
(x2)

bridge2:
----------------------------------------------------------------------------------------------------|
----------------------------------------------------------------------------------------------------|
----------------------------------------------------------------------------------------------------|
----8--22--22--------------8--22--22-----3(h)-------------------------------------------------------|
----7--22--22--------------7--22--22----------------------------------------------------------------|
-00--0-00--00-11111111--00--0-00--00-1111-----------------------------------------------------------|

----------------------------------------------------------------------------------------------------|
----------------------------------------------------------------------------------------------------|
----------------------------------------------------------------------------------------------------|
----8--22--22--------------8--22--22----------------------------------------------------------------|
----7--22--22--------------7--22--22----------------------------------------------------------------|
-00--0-00--00-11111111--00--0-00--00-11111111-------------------------------------------------------|

----------------------------------------------------------------------------------------------------|
----------------------------------------------------------------------------------------------------|
----------------------------------------------------------------------------------------------------|
----8--22--22--------------8--22--------------------------------------------------------------------|
----7--22--22--------------7--22--------------------------------------------------------------------|
-00--0-00--00-11111111--00--0-00--000-000-----------------------------------------------------------|

----------------------------------------------------------------------------------------------------|
----------------------------------------------------------------------------------------------------|
----------------------------------------------------------------------------------------------------|
----8--22--22--------------8--22--22----------------------------------------------------------------|
----7--22--22--------------7--22--22----------------------------------------------------------------|
-00--0-00--00-11111111--00--0-00--00-11111111-------------------------------------------------------|

----------------------------------------------------------------------------------------------------|
----------------------------------------------------------------------------------------------------|
----------------------------------------------------------------------------------------------------|
-22---8--22--22---------22-8---22--22---------------------------------------------------------------|
-22---7--22--22---------22-7---22--22---------------------------------------------------------------|
-00--0-00--00-11111111--00---0-00--00---------------------------------------------------------------|

chorus:
first guitar:
----------------------------------------------------------------------------------------------------|
----------------------------------------------------------------------------------------------------|
----------------------------------------------------------------------------------------------------|
---------------77-77777-777-------5555-4444------7-7-7-7-9-9-9-9------------------------------------|
-55-55555-555--55-55555-555----------------5555--3-3-3-3-5-5-5-5------------------------------------|
-33-33333-333----------------0000-------------------------------------------------------------------|
(x2)

second guitar:
----------------------------------------------------------------------------------------------------|
----------------------------------------------------------------------------------------------------|
-----------------------------------7-5-4-5----------------------------------------------------------|
----7-5-45---7-5-45------9-7-5-4-0--0-0------------------------7777-9999----------------------------|
-----------------------55-5-5-5-----------------7777-5555-2222-3333-5555----------------------------|
--33-3-3---33-3-3--------------------------0000-----------------------------------------------------|
(x2)


Rashamba's myspace
http://www.myspace.com/rashamba
Tap to rate this tab
# A B C D E F G H I J K L M N O P Q R S T U V W X Y Z