Song name
# A B C D E F G H I J K L M N O P Q R S T U V W X Y Z

Rasmus - Ten Black Roses tab

-------------------------------------------------------------------------------
			     TEN BLACK ROSES - The Rasmus
-------------------------------------------------------------------------------
Tabbed by: Mono
Email: bowdowntothemono@hotmail.co.uk

Tuning: Standard (EADGBe)

Intro (some random noises)

Verse (clean):
e|------------------------------------------------------|
B|------------------------------------------------------|
G|------8~--------8~-------7------5~-------5~-------4~--|
D|------------------------------------------------------| x2
A|---10--------10--------8------6--------6--------5-----|
E|-8---------8---------6------4--------4--------3-------|

Pre-chorus (light distortion on, PM except for last chord):
e|-------------------------------------------------------------------|
B|-------------------------------------------------------------------|
G|-------------------------------------------------------------------|
D|-66666666-88888888-1010101010101010-------33333333------888888-5~--|
A|-66666666-88888888-1010101010101010-------33333333------888888-5~--|
E|-44444444-66666666-8-8-8-8-8-8-8-8--10-11-11111111-10-8-666666-3~--|

Chorus (full distortion on): (Listen to song for rhythm)
e|--------------------------------------|
B|--------------------------------------|
G|-5xx5xx5x-3xx3xx3x--------------------|
D|-5xx5xx5x-3xx3xx3x-3xx3xx3x-5xx5xx5x--| x2
A|-3xx3xx3x-1xx1xx1x-3xx3xx3x-5xx5xx5x--|
E|-------------------1xx1xx1x-3xx3xx3x--|

Post-chorus (there are two guitars here):
Guitar 1 (rhythm):
e|------------------------|
B|------------------------|
G|-5-5----55533----333----|
D|-5-5----55533----33355--|
A|-3-3----33311----11155--|
E|--------------------33--|

Guitar 2 (lead):
e|--------------------------------------|
B|--------------------------------------|
G|--------------------------------------|
D|------------------------------3---5---|
A|-3-3----33531----1131--------3-3-5-5--|
E|---------------------3----331---3-----|


Second verse (all PM):
e|--------------------------------------------------------|
B|--------------------------------------------------------|
G|--------------------------------------------------------|
D|--------1010101010108866666666666666666666666666665555--|
A|- REST -1010101010108866666666666666666666666666665555--|
E|--------8-8-8-8-8-8-6644444444444444444444444444443333--|

Second pre-chorus (There are two guitars here. Guitar is playing the same as the first 
whilst the second does this over the top.)
Guitar 2:
e|-----------------------|
B|-----------------------|
G|-87- x10 -- FEEDBACK --|
D|-----------------------|
A|-----------------------|
E|-----------------------|

Chorus

Bridge part 1 (very quiet, finish with loud feedback):
e|----------------------------|
B|----------------------------|
G|----------------------------|
D|--17-1518-17-15-1317-15-13--|
A|----------------------------|
E|----------------------------|

Bridge part 2 (this is the rhythm part to a strings solo, there's quite a lot of 
going over the top too):
e|--------------------------------------------|
B|--------------------------------------------|
G|--------------------------------------------|
D|-101010101010101088666666666666666655-10~\--|
A|-101010101010101088666666666666666655-10~\--|
E|-8-8-8-8-8-8-8-8-66444444444444444433-8~\---|

Pre-verse (clean):
e|--------------------------------------|
B|--------------------------------------|
G|---6~------6~-----5---3~------3---2~--|
D|--------------------------------------|
A|--8-------8------6---4-------4---3----|
E|-6-------6------4---2-------2---1-----|

Final verse (Guitar 1 plays the pre-verse again, except for the last arpeggio. Guitar 2 
this, all PM):
e|---------------------------------------|
B|---------------------------------------|
G|---------------------------------------|
D|-888--------888--------444--------444--|
A|-888--------888--------444--------444--|
E|-666--------666--------222--------222--|

Chorus
Bridge part 2 (don't play last chord)
Fade out with same random noises as the start

The End


| /  slide up
| \  slide down
| h  hammer-on
| p  pull-off
| ~  vibrato
| +  harmonic
| x  Mute note
===============================================================================
Tap to rate this tab
 
# A B C D E F G H I J K L M N O P Q R S T U V W X Y Z