Song name
# A B C D E F G H I J K L M N O P Q R S T U V W X Y Z

Rasmus - Your Forgiveness tab

-------------------------------------------------------------------------------
			     YOUR FORGIVENESS - The Rasmus
-------------------------------------------------------------------------------
Tabbed by: Mono
Email: bowdowntothemono@hotmail.co.uk

Tuning: Standard (EADGBe)

There are two guitars in this, so I'll tab 'em both out.

Intro/Verse:
Guitar 1 (clean):    Guitar 2 (clean, with some sort of effect I think):
e|-------|           e|----------------------------------------------------|
B|-9-10--|           B|----------------------------------------------------|
G|-------|           G|----------------------------------------------------|
D|-------|           D|------7-11--|  Repeat both a lot, finish on A|-11---|
A|-------|           A|-9-11-----------------------------------------------|
E|-------|           E|----------------------------------------------------|

Main Riff/Pre-chorus:
Guitar 2 silent, Guitar 1 (distorted): (Listen to song for timing)
e|---------------------------------------|
B|---------------------------------------|
G|---------------------------------------|
D|-44667----4-4667788--911129----911129--| x2
A|-44667----4-4667788--911129----911129--|
E|-22445----2-2445566--79-107----79-107--|

Chorus:
Guitar 1 (distorted):
e|-------------------------------------------------|------------------|
B|-------------------------------------------------|------------------|
G|-77777777444444449999997766666666--------77777777|9999997766666666--|
D|-777777774444444499999977666666664444444477777777|9999997766666666--|
A|-555555552222222277777755444444444444444455555555|7777775544444444--|
E|---------------------------------22222222--------|------------------|
Guitar 2 (distorted, quiet): (I think it's a combination of these two riffs)
e|-----------|-7---------|
B|-10-9-7----|---10-9-7--|
G|--------9--|-----------|
D|-----------|-----------|
A|-----------|-----------|
E|-----------|-----------|

Pre-verse:
Guitar 1 plays main riff, Guitar 2 does Fill 1:
Fill 1:
e|-------------------------|
B|-------------------------|
G|-------------------------|
D|-------------------------|
A|-16\14/16\12/14\11/12\9--|
E|-------------------------|

Verse

Pre-chorus

Chorus (Same as first, except Guitar 1 finishes with this):
e|---------------------------------------------------|
B|---------------------------------------------------|
G|-9999999999999999----------------------------------|
D|-999999999999999911111111111111111111111111111111--|
A|-777777777777777711111111111111111111111111111111--|
E|-----------------9-9-9-9-9-9-9-9-9-9-9-9-9-9-9-9---|

Solo:
Guitar 1:
e|----------------------------------------------|
B|----------------------------------------------|
G|----------------------------11br--------11br--|
D|-44667----4-4667788--911129-11br-911129-11br--| x2
A|-44667----4-4667788--911129------911129-------|
E|-22445----2-2445566--79-107------79-107-------|

Guitar 2:
e|---------------------------------------------------------|
B|-----------19br------------------------------------------|
G|-17br(t)-------18br----------------16-18-19-16-----------|
D|-------------------19br-14br-----------------------------|
A|-----------------------------------------------14-16-17--|
E|---------------------------------------------------------|
Guitar 2 contd.
e|-------------------------------|
B|-------------------------------|
G|-------------------------------|
D|----------------------14t-16t--|
A|-9t--11t--12t-14t-16t----------|
E|-------------------------------|

Chorus (same as second chorus)

Outro (Guitar 1 plays same as in solo, Guitar 2 plays fills (shown below) in the
order listed below):
Fill 2:            Fill 3:
e|---------------| e|--------------------|
B|-12-10--12-10--| B|-19br---------------|
G|---------------| G|-----18br-----------|
D|---------------| D|---------19br-16br--|
A|---------------| A|--------------------|
E|---------------| E|--------------------|

Fill 2, Fill 1, Fill 2, Fill 1, Fill 3, Fill 1

Intro/Verse to fade

The End.


| br bend and release
| t  tremolo pick
| b  bend
| /  slide up
| \  slide down
| h  hammer-on
| p  pull-off
| ~  vibrato
| +  harmonic
| x  Mute note
===============================================================================
Tap to rate this tab
 
# A B C D E F G H I J K L M N O P Q R S T U V W X Y Z